Blood Ceremony

The Eldritch Dark tab

Blood Ceremony

tools Ultimate Tabs

Start AutoScroll Font Size Down Font Size Up

Find us on Facebook

chords
tabs
bass
ukulele
keyboards
drums
flute
harmonica
guitar pro
video
Ultimate-Tabs

The Eldritch Dark

-------------------------------------------------------------------------------
                      The Eldritch Dark - Blood Ceremony
-------------------------------------------------------------------------------
Tabbed by: JIC
E-mail: [email protected]

Tuning: Standard

Intro

e|------------------------------------------------------|
B|------------------------------------------------------|
G|------------------------------------------------------|
D|-----------------------------------------5--45h4p5h4p-|
A|------------------------------------------------------|
E|-3--2-3--2-3--2--------3--2-3--2-3--2-----------------|

e|------------------------------------------------------------------------------|
B|------------------------------------------------------------------------------|
G|-4----4--4--3----3--3---------------------------------------------------------|
D|-4----4--4--3----3--3--------------------------------------------5--45h4p5h4p-|
A|-2----2--2--1----1--1---------------------------------------------------------|
E|-------------------------3--2-3--2-3--2--------3--2-3--2-3--2-----------------|

e|-------------------------------------------------------------------------------|
B|-------------------------------------------------------------------------------|
G|-4----4--4--3----3--3--------------------------------------------------------4-|
D|-4----4--4--3----3--3--------------------------------------------5--4--------4-|
A|-2----2--2--1----1--1--------------------------------------------------5--4--2-|
E|-------------------------3--2-3--2-3--2--------3--2-3--2-3--2------------------|

e|-------------------------------------------------------------------------|
B|-------------------------------------------------------------------------|
G|-4-4----6--7----4-4----6/7-7--2/5-5----4-4----6--7----4-4----------------|
D|-4-4----6--7----4-4----6/7-7--2/5-5----4-4----6--7----4-4------------9-6-|
A|-2-2----4--5----2-2----4/5-5--0/3-3----2-2----4--5----2-2----------5-7-4-|
E|-------------------------------------------------------------0-2-3-------|

Verse

e|-------------------------------------------------------------------------| <-- x2
B|-------------------------------------------------------------------------|
G|-4-4----6--7----4-4----6/7-7--2/5-5----4-4----6--7----4-4----------------|
D|-4-4----6--7----4-4----6/7-7--2/5-5----4-4----6--7----4-4------------9-6-|
A|-2-2----4--5----2-2----4/5-5--0/3-3----2-2----4--5----2-2----------5-7-4-|
E|-------------------------------------------------------------0-2-3-------|

Flute Break

e|------------------------------------------------------------------------------|
B|------------------------------------------------------------------------------|
G|-4----4--4--3----3--3---------------------------------------------------------|
D|-4----4--4--3----3--3--------------------------------------------5--45h4p5h4p-|
A|-2----2--2--1----1--1---------------------------------------------------------|
E|-------------------------3--2-3--2-3--2--------3--2-3--2-3--2-----------------|

e|-------------------------------------------------------------------------------|
B|-------------------------------------------------------------------------------|
G|-4----4--4--3----3--3--------------------------------------------------------4-|
D|-4----4--4--3----3--3--------------------------------------------5--4--------4-|
A|-2----2--2--1----1--1--------------------------------------------------5--4--2-|
E|-------------------------3--2-3--2-3--2--------3--2-3--2-3--2------------------|

Verse

e|-------------------------------------------------------------------------| <-- x2
B|-------------------------------------------------------------------------|
G|-4-4----6--7----4-4----6/7-7--2/5-5----4-4----6--7----4-4----------------|
D|-4-4----6--7----4-4----6/7-7--2/5-5----4-4----6--7----4-4------------9-6-|
A|-2-2----4--5----2-2----4/5-5--0/3-3----2-2----4--5----2-2----------5-7-4-|
E|-------------------------------------------------------------0-2-3-------|

Flute Break

e|------------------------------------------------------------------------------|
B|------------------------------------------------------------------------------|
G|-4----4--4--3----3--3---------------------------------------------------------|
D|-4----4--4--3----3--3--------------------------------------------5--45h4p5h4p-|
A|-2----2--2--1----1--1---------------------------------------------------------|
E|-------------------------3--2-3--2-3--2--------3--2-3--2-3--2-----------------|

e|----------------------------------------------------------------------------|
B|----------------------------------------------------------------------------|
G|-4----4--4--3----3--3-------------------------------------------------------|
D|-4----4--4--3----3--3--------------------------------------------5--4-------|
A|-2----2--2--1----1--1--------------------------------------------------5--4-|
E|-------------------------3--2-3--2-3--2--------3--2-3--2-3--2---------------|

e|--------------------------------------------------------|
B|--------------------------------------------------------|
G|-4--------2--4--------2---------------------------------|
D|-4--------2--4--------2--3----3--3-------3----3--3------|
A|-2--------0--2--------0--3----------5-3--3----------5-3-|
E|-------------------------1---------------1--------------|

e|-----------------------------------------------------------|
B|-----------------------------------------------------------|
G|-4--------2--4--------2----------------------------------7-|
D|-4--------2--4--------2--3----3--3-------3----3--3-------7-|
A|-2--------0--2--------0--3----------5-3--3----------5-3--5-|
E|-------------------------1---------------1-----------------|

e|------------------------------------------------------| <-- x12
B|------------------------------------------------------|
G|------------------------------------------------------|
D|-------------2--2--3-2-0------------------------------|
A|-2--2--5--5---------------2--2--5--5--1--1--45h4p5h4p-|
E|------------------------------------------------------|

e|-------------------------|
B|-------------------------|
G|-------------------------|
D|-------------------------|
A|-5-4-2-5-4-2-5-4-2-5-4-2-|
E|-------------------------|

e|------------------------------------------------------------------------------| <-- x2
B|------------------------------------------------------------------------------|
G|-4----4--4--3----3--3---------------------------------------------------------|
D|-4----4--4--3----3--3--------------------------------------------5--45h4p5h4p-|
A|-2----2--2--1----1--1---------------------------------------------------------|
E|-------------------------3--2-3--2-3--2--------3--2-3--2-3--2-----------------|

************************************

| /   slide up
| \   slide down
| h   hammer-on
| p   pull-off
| ~   vibrato
| +   harmonic
| x   Mute note
| b   Bend
| pb  Pre-bend
| br  Bend release
| pbr Pre-bend release
| brb Bend release bend

************************************
less
plus
Add to Songbook Print Version How to play lesson Submit videolesson
Click the best TAGS for this song:
None of them
Contributor: ashiEthi Correct

If you can not find the chords or tabs you want, look at our partner E-chords. If you are a premium member, you have total access to our video lessons.

If you find a wrong Bad To Me from Blood Ceremony, click the correct button above.

login/signup
my songbooks
my recent views
my submits