S Blue Foundation

Eyes On Fire bass

Blue Foundation

tools Ultimate Tabs

Start AutoScroll Font Size Down Font Size Up

Find us on Facebook

chords tabs
bass
ukulele keyboards
drums
flute
harmonica
guitar pro video
Ultimate-Tabs

Eyes On Fire

Song: Eyes on Fire
Artist: Blue Foundation

Tuning: Standard
Tabbed By: BigG-31
Email: [email protected]

First Tab I’ve Done, which I only did because a friend of mine wants to sing it with me.
all comments are welcome, constructive criticism or nice comments are preferable
You also may have to listen to the song a bit to pick up on how many times to repeat 
section, but the times I put on it do most of it for you. Enjoy.

Intro – 00:00
G|-------------------|                |--------------------------|
D|-------------------|                |--------------------1111--|
A|-2-2----------11---|                |--2-2-----------11--------|
E|-----33-5-7~----2--| Repeat x3      |------33-5-7~-----2-------|

Verse - 00:26 – 01:34
G|-------------------------------------------|
D|---------------------------------------1111|
A|-2-2----------11-----2-2-----------11------|
E|-----33-5-7~----2--------33-5-7~-----2-----|

Break - 1:20
G|-------------------|
D|-------------------|
A|-------------------|
E|-7~-------7~-------|

Pre-Chorus – 02:11 – 03:05
G|--------|
D|--------|
A|-p2h4p6-|
E|--------|

Chorus – 02:15 – 02:41 – 3:10 – 03:35 – 04:27
G|--------------------|
D|--------------------|
A|-2222---------------|
E|------3333-77777777-|

Chorus 2 – 02:35 – 04:01
G|--------------------|
D|--------------------|
A|-2~-----------------|
E|------3~---7~-------|
less
plus
Add to Songbook Print Version How to play lesson Submit videolesson
Click the best TAGS for this song:
None of them
Contributor: Jen_Jim- Correct

If you can not find the chords or tabs you want, look at our partner E-chords. If you are a premium member, you have total access to our video lessons.

If you find a wrong Bad To Me from Blue Foundation, click the correct button above.

login/signup
my songbooks
my recent views
my submits