Bob Marley

Zion Train bass

Bob Marley

Album:Uprising

Year:1980

tools Ultimate Tabs

Start AutoScroll Font Size Down Font Size Up

Find us on Facebook

chords
tabs
bass
ukulele keyboards
drums
flute
harmonica
guitar pro
video
Ultimate-Tabs

Zion Train

	 
      INTRO 
G ||-----------------------------------------------------------------------------------| 
D ||-------7---------5-5-------7--------3-3-3---3-5---7----------5-5--------2--2--2--2-| 
A ||---------7-----------5-------7------------3---------7------------5-----------------| 
E ||--0-3------8-5---------3------8-5---------------------8-5----------3---------------| 



      Zion train is coming... (estribillo) 
G ||----------------------------------------------------------------------------------| 
D ||--7-5--------------------------------------7-5------------------------------------| 
A ||------7-5-----------------------0---0-3-5------7-5---------------------0---0-3-5--| 
E ||----------8-8-5---3-3-3-3---0-3--------------------8-8-5---3-3-3---0-3------------| 


       
      Oh, people, get on board!... (así es la base de todo el tema) 
G ||---------------------------------------------| 
D ||-7---------5-5-------7-7-7------3-3-3-----3--| 
A ||---7-----------5-----------7----------3------| 
E ||-----8-5---------3-----------5---------------| 



      Oh, where there's a will... (aca cambia)       
G ||------7---------7---------9-7----|------9-7-------| 
D ||---10---10---10---10---10--------|---10-----------| 
A ||-8---------8---------8--------10-|-8--------10-10-| 
E ||---------------------------------|----------------| 
                 (x4) 




Zion train is coming our way; 
The Zion train is coming our way; 
Oh, people, get on board! (you better get on board!) 
Thank the Lord (praise Fari) - 
I gotta catch a train, 'cause there is no other station; 
Then you going in the same direction (ooh-ooh). 

Zion's train is coming our way; 
The Zion's train is coming our way. 

Which man can save his brother's soul? (save your brother's soul) 
Oh man, it's just self control. (oo-hoo-oo!) 
Don't gain the world and lose your soul (just don't lose your soul) 
Wisdom is better than silver and gold - 
To the bridge (ooh-ooh!) 

Oh, where there's a will, 
There's always a way. 
Where there's a will, 
There's always a way (way, way, way, way), 

Soul train is coming our way; er! 
Zion train is coming our way. 

Two thousand years of history (history) 
Could not be wiped away so easily. 
Two thousand years of history (Black history) 
Could not be wiped so easily (could not be wiped so easily). 

Oh, children, Zion train is comin' our way; get on board now! 
They said the Zion train is comin' our way; 
you got a ticket, so thank the Lord! 
Zion's train is - Zion's train is - Zion's train is - Zion's train - 
They said the soul train is coming our way; 
They said the soul train is coming our way. 


maaaso menos ahi anda el tema, espero q les sirva 
DreadPicho =) 
less
plus
Add to Songbook Print Version How to play lesson Submit videolesson
Click the best TAGS for this song:
None of them
Contributor: lill232e Correct

If you can not find the chords or tabs you want, look at our partner E-chords. If you are a premium member, you have total access to our video lessons.

If you find a wrong Bad To Me from Bob Marley, click the correct button above.

login/signup
my songbooks
my recent views
my submits