Bon Jovi

Something for the Pain (vers.2) tab

Bon Jovi

tools Ultimate Tabs

Start AutoScroll Font Size Down Font Size Up

Find us on Facebook

chords
tabs
bass
ukulele
keyboards
drums
flute
harmonica
guitar pro
video
Ultimate-Tabs

Something for the Pain (vers.2)

~~   - Vibrato 
b    - Bend 
(1/2)- Valor do bend 
h    - Hammer on 
p    - Pull off 
/    - Slide crescente 
\    - Slide decrescente 
 
 
O efeito varia entre intro, verso, ponte, Refrão, e solo: 
Intro= pouco drive com bastante reverb seco (copiando o som de sitara) 
Verso= pouco drive 
Ponte= drive mais forte 
Refrão= igual a intro (dedilhado) 
Solo= Igual a ponte 
 
 
Tom: E 
taB| 
E|-------------------------------------------------- 
B|-------------------------------------------------- 
G|-------------------------------------------------- 
D|9-9-11b(1/2)~~-6-6-6b(1/2)6~~-6b(1/2)r6--6b(1/2)r6 
A|----------------------------7-----------7--------- 
E|-------------------------------------------------- 
 
E|-------------------------------/ 
B|-------------------------------/ 
G|-------------------------------/ 
D|9-9-11b(1/2)~~-6-6-6b(1/2)6~~--/ 
A|----------------------------7--/ 
E|-------------------------------/ 
  E   A4             B9       E 
E|-------------------------------------------------- 
B|-------------------------------------------------- 
G|-------------------------------------------------- 
D|9-9-11b(1/2)~~-6-6-6b(1/2)6~~-6b(1/2)r6--6b(1/2)r6 
A|-----0----------------------7-----------7--------- 
E|0-------------------7-------0--------------------- 
  E   A4            B9       E 
E|-------------------------------/ 
B|-------------------------------/ 
G|-------------------------------/ 
D|9-9-11b(1/2)~~-6-6-6b(1/2)6~~--/ 
A|-----0----------------------7--/ 
E|0-------------------7-------0--/ 
 
intro do verso/verso 
  E9      E4       E9     E4      C#m     B4      A9 
E|---0------0--------0-------0------0-------0------0 
B|--0--0---0--------0---0---0---0--0--0----0-------0 
G|/4--4-4\2--2h4p2-1---1---------------------------2 
D|------------------------4----4-------------------2 
A|--------------------------------4--4--4/2--2h4p2-0 
E|-0------------------------------------------------ 
 
Ponte 
    B4                  A9               A4 
E|-----7--7-7-7--7-7-7--5--5-5-5--5-5-5------------- 
B|2/4--7--7-7-4--7-7-4--5--5-5-2--5-5-2--2-3-2-3-2-3 
G|2/4--4---------4------2---------2------2-2-2-2-2-2 
D|2/4------------------------------------2-2-2-2-2-2 
A|-------------------------------------------------- 
E|-------------------------------------------------- 
 
.Cifra: 
E9      E4             E9             E4  
Hapiness,  it's been no friend to me, 
      C#m           B4                A9 
but forever after ain't what it's all cracked up to be 
        E9         E4            E9       E4  
Yeah, I had a taste, you were my fantasy, 
    C#m       B4                 A9 
But I lost my faith when I hit reality 
 
.Ponte: 
B4 
  I don't need no Guru to tell me what to do, 
A9 
  when your feeling like a headline on yesterday's news 
A4 
Come on, come on, come on 
 
.Refrão: 
                          E  
Give me something for the pain, 
A9                          B9 
  give me something for the blues 
                       C#m 
Give something for the pain when I feel I've been  
A9                       B9 
danglin' on a hang-man's noose 
                      E 
Give me something for pain, 
A9                        B9 
  give me something I can use 
          A9                         B9 
To get me through the night, make me feel all right, 
    E          A9   A4 
Something like you. Come on, Come on, Come on. 
 
.Verso 2 
E9         E4            E9       E4 
Loneliness   has found a home in me, 
   C#m              B4             A9 
my suitcase and guitar are my only family 
              E9          E4           E9        E4 
I've tried to need someone,  like they needed me 
  C#m          B4               A9 
I opened up my heart, but all I did was bleed 
 
.Ponte: 
B4 
 I don't need no lover, just to get screwed, 
A9 
 They don't make a bandage that's going to cover my bruise 
A4 
Come on, come on, come on 
 
.Refrão 2:  
                          E  
Give me something for the pain, 
A9                          B9 
  give me something for the blues 
                       C#m 
Give something for the pain when I feel I've been  
A9                       B9 
danglin' on a hang-man's noose 
                      E 
Give me something for pain, 
A9                        B9 
  give me something I can use 
          A9                         B9 
To get me through the night, make me feel all right, 
    E          A9   A4 
Something like you. Come on, Come on, Come on. 
 
.Solo: B, A, B, A  
Executado com Slide 
  B 
E|-------------------------------5/7---- 
B|-5/7-5/7-5/7-7\5\4---7\5/7\5\4-5/7-------  
G|-------------------------------------- 
D|-------------------------------------- 
A|-------------------------------------- 
E|-------------------------------------- 
  A 
E|-----5-5-5-5-------------------3/5---- 
B|-3/5---------5\3\2---5\3/5\3\2-3/5---- 
G|-------------------------------------- 
D|-------------------------------------- 
A|-------------------------------------- 
E|-------------------------------------- 
  B 
E|-----------------------6/7----------------------- 
B|-0-0-4-0-0-5-0-0-6-0-7-6/7--0-0-12-0-14-0-15-0-16  
G|------------------------------------------------- 
D|------------------------------------------------- 
A|------------------------------------------------- 
E|------------------------------------------------- 
  A 
E|------17-17-17-17---------------------------15/17 
B|15/17-------------17\15\14---17\15/17\15\14-15/17  
G|------------------------------------------------- 
D|------------------------------------------------- 
A|------------------------------------------------- 
E|------------------------------------------------- 
 
.Verso 3: 
E9                 E4 
Pull me under, run through my veins 
E9                 E4 
To a place where I feel no pain 
C#m             B4 
Be the pillow under my head,  
A9 
Give me cover when I'm in my bed 
E9                       E4 
Take me higher than I've ever been 
E9               E4 
Take me down and back again 
C#m            B4 
Come to me, be my disguise 
A9 
Open your coat, let me crawl inside 
A4                         A4 
Come on, come on, come on. Come on, come on, come on 
 
.Refrão 3:2x 
                          E  
Give me something for the pain, 
A9                          B9 
  give me something for the blues 
                       C#m 
Give something for the pain when I feel I've been  
A9                       B9 
danglin' on a hang-man's noose 
                      E 
Give me something for pain, 
A9                        B9 
  give me something I can use 
          A9                         B9 
To get me through the night, make me feel all right, 
    E          A9   A4 
Something like you. Come on, Come on, Come on. 
 
Final: 
E       A4                          B4   E  
Give me,  give me something for the pain 
E       A4                          B4   E  
Give me,  give me something for the blues 
E       A4        B4                E    
Give me,  give me something for the pain 
E       A4       B4      E 
Give me. 
 
 
 
 
less
plus
Add to Songbook Print Version How to play lesson Submit videolesson
Click the best TAGS for this song:
None of them
Contributor: daniekke Correct

If you can not find the chords or tabs you want, look at our partner E-chords. If you are a premium member, you have total access to our video lessons.

If you find a wrong Bad To Me from Bon Jovi, click the correct button above.

login/signup
my songbooks
my recent views
my submits