Bon Jovi

This House Is Not For Sale tab

Bon Jovi

tools Ultimate Tabs

Start AutoScroll Font Size Down Font Size Up

Find us on Facebook

chords
tabs
bass
ukulele
keyboards
drums
flute
harmonica
guitar pro
video
Ultimate-Tabs

This House Is Not For Sale

Intro

e|-0--------3-----3--3--3--|-3-----3--3-----3--------|
B|-0--------3-----3--3--3--|-3-----3--3-----3--------|
G|-0--------0-----0--0--0--|-0-----0--0-----0--------|
D|-2-----2--0-----0--0--0--|-2-----2--0-----0--------| (3x)
A|-2-----2--2-----2--2--2--|-3-----3--2-----2--------|
E|-0-----0--3-----3--3--3--|----------3-----3--3--2--|

e|-0--------3-----3--3--3--|-3-----3--3-----3--3--3--|
B|-0--------3-----3--3--3--|-3-----3--3-----3--3--3--|
G|-0--------0-----0--0--0--|-0-----0--0-----0--0--0--|
D|-2-----2--0-----0--0--0--|-2-----2--0-----0--0--0--|
A|-2-----2--2-----2--2--2--|-3-----3--2-----2--2--2--|
E|-0-----0--3-----3--3--3--|----------3-----3--3--3--|


Verse
   PM PM PM PM PM PM PM PM    PM PM PM PM PM
e|--------------------------|--------------------------| |
B|--------------------------|--------------------------| |
G|--------------------------|-----------------2--2--2--| |
D|--------------------------|-----------------2--2--2--| |
A|--------------------------|-----------------0--0--0--| |
E|--3--3--3--3--3--3--3--3--|--3--3--3--3--3-----------| |
                                                         | (2x)
   PM PM PM PM PM PM PM PM    PM PM PM PM PM             |
e|--------------------------|--------------------------| |
B|--------------------------|-----------------3--3--3--| |
G|--------------------------|-----------------2--2--2--| |
D|--------------------------|-----------------0--0--0--| |
A|--------------------------|--------------------------| |
E|--0--0--0--0--0--0--0--0--|--0--0--0--0--0-----------| |


Pre-Chorus
(let ring)
e|-0-----------|-3-----------|-0-----------|-3-----------|-0-----------|-0-----------|
B|-1-----------|-3-----------|-1-----------|-3-----------|-1-----------|-1--r--------|
G|-0-----------|-0-----------|-2-----------|-0-----------|-0-----------|-0--e--------|
D|-2-----------|-0-----------|-2-----------|-0-----------|-2-----------|-2--s--------|
A|-3-----------|-2-----------|-0-----------|-2-----------|-3-----------|-3--t--------|
E|-------------|-3-----------|-------------|-3-----------|-------------|-------------|

Guitar n2:
e|-----------|-----------|-----------|-----------|-----------|-----|
B|------1----|------0----|------1----|------0----|------1----|--1--|
G|----0---0--|----0---0--|----2---2--|----0---0--|----0---0--|--0--|
D|-----------|-----------|-----------|-----------|-----------|--2--|
A|--3--------|-----------|--0--------|-----------|--3--------|--3--|
E|-----------|--3--------|-----------|--3--------|-----------|-----|


Chorus

e|-0--------3-----3--3--3--|-3-----3--3-----3--------|
B|-0--------3-----3--3--3--|-3-----3--3-----3--------|
G|-0--------0-----0--0--0--|-0-----0--0-----0--------|
D|-2-----2--0-----0--0--0--|-2-----2--0-----0--------| (5x)
A|-2-----2--2-----2--2--2--|-3-----3--2-----2--------|
E|-0-----0--3-----3--3--3--|----------3-----3--3--2--|

e|-0--------3-----3--3--3--|-3-----3--3-----3--3--3--|
B|-0--------3-----3--3--3--|-3-----3--3-----3--3--3--|
G|-0--------0-----0--0--0--|-0-----0--0-----0--0--0--|
D|-2-----2--0-----0--0--0--|-2-----2--0-----0--0--0--|
A|-2-----2--2-----2--2--2--|-3-----3--2-----2--2--2--|
E|-0-----0--3-----3--3--3--|----------3-----3--3--3--|


Verse
   PM PM PM PM PM PM PM PM    PM PM PM PM PM            
e|--------------------------|--------------------------| |
B|--------------------------|--------------------------| |
G|--------------------------|-----------------2--2--2--| |
D|--------------------------|-----------------2--2--2--| |
A|--------------------------|-----------------0--0--0--| |
E|--3--3--3--3--3--3--3--3--|--3--3--3--3--3-----------| |
                                                         | (2x)
   PM PM PM PM PM PM PM PM    PM PM PM PM PM             |
e|--------------------------|--------------------------| |
B|--------------------------|-----------------3--3--3--| |
G|--------------------------|-----------------2--2--2--| |
D|--------------------------|-----------------0--0--0--| |
A|--------------------------|--------------------------| |
E|--0--0--0--0--0--0--0--0--|--0--0--0--0--0-----------| |


Pre-Chorus
(let ring)
e|-0-----------|-3-----------|-0-----------|-3-----------|-0-----------|-0-----------|
B|-1-----------|-3-----------|-1-----------|-3-----------|-1-----------|-1--r--------|
G|-0-----------|-0-----------|-2-----------|-0-----------|-0-----------|-0--e--------|
D|-2-----------|-0-----------|-2-----------|-0-----------|-2-----------|-2--s--------|
A|-3-----------|-2-----------|-0-----------|-2-----------|-3-----------|-3--t--------|
E|-------------|-3-----------|-------------|-3-----------|-------------|-------------|

Guitar n2:
e|-----------|-----------|-----------|-----------|-----------|-----|
B|------1----|------0----|------1----|------0----|------1----|--1--|
G|----0---0--|----0---0--|----2---2--|----0---0--|----0---0--|--0--|
D|-----------|-----------|-----------|-----------|-----------|--2--|
A|--3--------|-----------|--0--------|-----------|--3--------|--3--|
E|-----------|--3--------|-----------|--3--------|-----------|-----|


Chorus

e|-0--------3-----3--3--3--|-3-----3--3-----3--------|
B|-0--------3-----3--3--3--|-3-----3--3-----3--------|
G|-0--------0-----0--0--0--|-0-----0--0-----0--------|
D|-2-----2--0-----0--0--0--|-2-----2--0-----0--------| (5x)
A|-2-----2--2-----2--2--2--|-3-----3--2-----2--------|
E|-0-----0--3-----3--3--3--|----------3-----3--3--2--|

e|-0--------3-----3--3--3--|-3-----3--3-----3--3--3--|
B|-0--------3-----3--3--3--|-3-----3--3-----3--3--3--|
G|-0--------0-----0--0--0--|-0-----0--0-----0--0--0--|
D|-2-----2--0-----0--0--0--|-2-----2--0-----0--0--0--|
A|-2-----2--2-----2--2--2--|-3-----3--2-----2--2--2--|
E|-0-----0--3-----3--3--3--|----------3-----3--3--3--|


Bridge
(let ring)
e|--0-----|--0-----|--0-----|--2-----|--0-----|--0-----|--0-----|
B|--1-----|--0-----|--1-----|--3-----|--1-----|--0-----|--1-----|
G|--2-----|--0-----|--0-----|--2-----|--2-----|--0-----|--0-----|
D|--2-----|--2-----|--2-----|--0-----|--2-----|--2-----|--2-----|
A|--0-----|--2-----|--3-----|--------|--0-----|--2-----|--3-----|
E|--------|--0-----|--------|--------|--------|--0-----|--------|

e|--------------------------|--------------------------|
B|--3--3--3--3--3--3--3--3--|--3--3--3--3--3--3--3--3--|
G|--2--2--2--2--2--2--2--2--|--2--2--2--2--2--2--2--2--|
D|--0--0--0--0--0--0--0--0--|--0--0--0--0--0--0--0--0--|
A|--------------------------|--------------------------|
E|--------------------------|--------------------------|


Solo

e|-----------------------------0---0---------|------3----5b7--3p2--3--------------------|
B|-------------------------------0-----------|--/3----3---------------5--3--5--5b7br5~--|
G|---------------0~--x--x--2b4-------2b4br2--|------------------------------------------|
D|------2~--x--x-----------------------------|------------------------------------------|
A|--10\--------------------------------------|------------------------------------------|
E|-------------------------------------------|------------------------------------------|

e|-----------------------------------------|
B|--12------------------------12--13--15~--|
G|--12--------12--------12h14--------------|
D|-----14--12----14--12--------------------|
A|-----------------------------------------|
E|-----------------------------------------|

e|--12-14-15-14-12----12----------12---------------------------------------------------------|
B|-----------------15----15-12-15----15-12----12----------12---------------------------------|
G|-----------------------------------------14----14-12-14----14-12---------------------------|
D|-----------------------------------------------------------------14-12---------------------|
A|-----------------------------------------------------------------------14-12-10------------|
E|--------------------------------------------------------------------------------12-10-12~--|

Guitar n2:
e|-0--------3-----3--3--3--|-3-----3--3-----3--------|
B|-0--------3-----3--3--3--|-3-----3--3-----3--------|
G|-0--------0-----0--0--0--|-0-----0--0-----0--------|
D|-2-----2--0-----0--0--0--|-2-----2--0-----0--------| (4x)
A|-2-----2--2-----2--2--2--|-3-----3--2-----2--------|
E|-0-----0--3-----3--3--3--|----------3-----3--3--2--|


Break

e|-0--------3-----3--3--3--|-3-----3--3-----3--------|
B|-0--------3-----3--3--3--|-3-----3--3-----3--------|
G|-0--------0-----0--0--0--|-0-----0--0-----0--------|
D|-2-----2--0-----0--0--0--|-2-----2--0-----0--------| (2x)
A|-2-----2--2-----2--2--2--|-3-----3--2-----2--------|
E|-0-----0--3-----3--3--3--|----------3-----3--3--2--|


Final Chorus

e|-0--------3-----3--3--3--|-3-----3--3-----3--------|
B|-0--------3-----3--3--3--|-3-----3--3-----3--------|
G|-0--------0-----0--0--0--|-0-----0--0-----0--------|
D|-2-----2--0-----0--0--0--|-2-----2--0-----0--------| (11x)
A|-2-----2--2-----2--2--2--|-3-----3--2-----2--------|
E|-0-----0--3-----3--3--3--|----------3-----3--3--2--|

e|-0--------3-----3--3--3--|-3-----3--0--------|
B|-0--------3-----3--3--3--|-3-----3--0--------|
G|-0--------0-----0--0--0--|-0-----0--0--------|
D|-2-----2--0-----0--0--0--|-2-----2--2--------| 
A|-2-----2--2-----2--2--2--|-3-----3--2--------|
E|-0-----0--3-----3--3--3--|----------0--------|


************************************

| PM  Palm muting
| x   Dead note
| h   Hammer-on
| b   Bend
| br  Bend release
| /   Slide up
| \   Slide down
| ~   Vibrato

************************************
less
plus
Add to Songbook Print Version How to play lesson Submit videolesson
Click the best TAGS for this song:
None of them
Contributor: Anonymous Correct

If you can not find the chords or tabs you want, look at our partner E-chords. If you are a premium member, you have total access to our video lessons.

If you find a wrong Bad To Me from Bon Jovi, click the correct button above.

login/signup
my songbooks
my recent views
my submits