S Bruno Mars

Long Distance chords

Bruno Mars

tools Ultimate Tabs

Start AutoScroll Font Size Down Font Size Up

Find us on Facebook

chords
tabs
bass
ukulele keyboards
drums
flute
harmonica
guitar pro video
Ultimate-Tabs

Long Distance

Verso: 
C          C7M       C9             C7             Fm    F 
  There's only so many songs that I can sing to pass the time 
C         C7M          C9           C7            Fm    F 
  And I'm running out of things to do to get you off my mind 

Ponte: 
Em                   Am 
  All I have is this picture in a frame 
D9                    G 
  That I hold close to see your face everyday 


C             C7M            Am 
  With you is where I'd rather be 
                           Cm 
  But we're stuck where we are 
              Cm7 
  and it's so hard 
            Fm 
  you're so far, this long distance is killing me 
C             C7M              Am 
  I wish that you were here with me 
                           Cm 
  But we're stuck where we are 
              Cm7 
  and it's so hard 
            Fm 
  you're so far, this long distance is killing me 
 
e|----------------------------------------------------------------------| 
B|-1------1-----1--0-----0----0--1-----1----1---0-----0-----0-----------| 
G|------0-----0--------0----0--------0----0---------0-----0-------------| 
D|----2-----2----2---2----2----2---2----2-----2---2-----2---------------| 
A|-3---------------3-------------3--------------3-----------------------| 
E|----------------------------------------------------------------------| 
 
Verso 2: C C7M C9 C7 Now the minutes feel like hours and the hours Fm F feel like days, While I'm away C C7M C9 C7 Fm You know right now I can't be home, but I'm coming home soon F Coming home soon… Ponte: Em Am All I have is this picture in a frame D9 G That I hold close to see your face everyday C C7M Am With you is where I'd rather be Cm But we're stuck where we are Cm7 and it's so hard Fm you're so far, this long distance is killing me C C7M Am I wish that you were here with me Cm But we're stuck where we are Cm7 and it's so hard Fm (slap) you're so far, Can you hear me crying!? C C7M Am Ohh oh, ohh oh.. Can you hear me crying!? (x2) C C7M Am Ohh oh, ohh oh, oh oh oh (x2) C C7M Am With you is where I'd rather be Cm But we're stuck where we are Cm7 and it's so hard Fm you're so far, this long distance is killing me C C7M Am I wish that you were here with me Cm But we're stuck where we are Cm7 and it's so hard Fm you're so far, this long distance is killing me
e|----------------------------------------------------------------------| 
B|-1------1-----1--0-----0----0--1-----1----1---0-----0-----0-----------| 
G|------0-----0--------0----0--------0----0---------0-----0-------------| 
D|----2-----2----2---2----2----2---2----2-----2---2-----2---------------| 
A|-3---------------3-------------3--------------3-----------------------| 
E|----------------------------------------------------------------------| 
Outro: C C7M C9 C7 F There's only so many songs that I can sing to pass the... time.
less
plus
Add to Songbook Print Version How to play lesson Submit videolesson
Click the best TAGS for this song:
None of them
Contributor: drugtomt Correct

If you can not find the chords or tabs you want, look at our partner E-chords. If you are a premium member, you have total access to our video lessons.

If you find a wrong Bad To Me from Bruno Mars, click the correct button above.

login/signup
my songbooks
my recent views
my submits