Bruno Mars

When I Was Your Man bass

Bruno Mars

Album:Unorthodox Jukebox

Year:2012

tools Ultimate Tabs

Start AutoScroll Font Size Down Font Size Up

Find us on Facebook

chords
tabs
bass
ukulele keyboards
drums
flute
harmonica
guitar pro video
Ultimate-Tabs

When I Was Your Man

Verse 1

|---------------|--------------|--------------|--------------|--------------|
|---------------|-3--3--3--3-5-|----------5-3-|-2--2---------|--------------|
|-----------2-3-|--------------|--------------|-------5--3-2-|----------2-3-|
|--5--5--5------|--------------|-3--3--3------|--------------|-5--5--5------|

|---------------|--------------|---------------|
|--3--3--3--3-5-|--------------|---------------|
|---------------|-------5--3-2-|-3--3--3-5---2-|
|---------------|-3--3---------|-----------5---|


Pre-Chorus 1

|---------------|---------|---------|----------|
|--------5/7--5-|-5-5-5-5-|-3-3-3-3-|-5-5-5----|
|--3-5-7--------|---------|---------|----------|
|---------------|---------|---------|----------|

Chorus 1

|----------------|----------------|-----------------|---------|---------------|
|----------------|----------------|-----------------|---------|-----------7-9-|
|--8--8--10------|----------------|-8--8--10--10-12-|---------|-8--8--10------|
|------------8-7-|-8--8--8--10-12-|-----------------|-8-8-8-8-|---------------|

|---------------------|--------------------------|
|--10--10--12-10-9-10-|--------9--------10----10-|
|---------------------|-12--12---10h12-----12----|
|---------------------|--------------------------|

Verse 2

|---------------|--------------|--------------|--------------|--------------|
|---------------|-3--3--3--3-5-|----------5-3-|-2--2---------|--------------|
|-----------5-3-|--------------|--------------|-------5--3-2-|----------2-3-|
|--5--5--5------|--------------|-3--3--3------|--------------|-5--5--5------|

|---------------|--------------|---------------|
|--3--3--3--3-5-|--------------|---------------|
|---------------|-------5--3-2-|-3--3--3-5---2-|
|---------------|-3--3---------|-----------5---|


Pre-Chorus 2

|---------------|---------|---------|----------|
|--------5/7--5-|-5-5-5-5-|-3-3-3-3-|-5-5-5----|
|--3-5-7--------|---------|---------|----------|
|---------------|---------|---------|----------|

Chorus 2

|---------------|----------------|---------------------|--------------------|
|---------------|----------------|------------------10-|-10--10--12-10-9-10-|
|--8--8--10-----|----------------|-8--8--10--10/12-----|--------------------|
|-----------5-8-|-8--8--8--10-12-|---------------------|--------------------|

|--------------------|--------------------|-------------------------|
|--------------10-12-|-15-14-10-----10-12-|-10--10--9----9-10-12-10-|
|--12--12--14--------|----------12--------|-----------10------------|
|--------------------|--------------------|-------------------------|

Bridge

|----------|----------------------|-------------|-----------|---------------|
|----------|----------------------|-10----9h10--|-9----7h9--|-7--7----------|
|--8-8-8-8-|-10--10--10--12-10-12-|-------------|-----------|-------7--7-10-|
|----------|----------------------|-------------|-----------|---------------|

|-------------------|-----------------------|----------------------|
|-------------------|-----------------------|----------------------|
|-------------------|--------------------10-|-10--10--10--10-12-10-|
|--10--10--10--8-10-|-10--10--10--10/12-----|----------------------|

Chorus 3

|-----------|-------------|-----------------|-------------|
|--10--12---|-------------|-10--12----------|-------------|
|--8---10---|-10----------|-8---10----10-12-|-10-10-10-10-|
|-----------|-8-----10-12-|-----------------|-8--8--8--8--|

|-----------------|----------------------|-----------------|-------------------|
|---------------9-|-10--12--14-14-12\10--|-----------------|-------------------|
|--8--8--10--12---|----------------------|-12--12--11------|-------------10-12-|
|-----------------|----------------------|-------------8-7-|-8--8--10-12-------|

|----------------12--------------|------|
|--10-----12/14-----14\12--10-12-|-10---|
|-----12-------------------------|-10---|
|--------------------------------|-8----|
less
plus
Add to Songbook Print Version How to play lesson Submit videolesson
Click the best TAGS for this song:
None of them
Contributor: wesnffra Correct

If you can not find the chords or tabs you want, look at our partner E-chords. If you are a premium member, you have total access to our video lessons.

If you find a wrong Bad To Me from Bruno Mars, click the correct button above.

login/signup
my songbooks
my recent views
my submits