Bryan Adams

I Will Be Right Here tab

Bryan Adams

tools Ultimate Tabs

Start AutoScroll Font Size Down Font Size Up

Find us on Facebook

chords
tabs
bass
ukulele
keyboards
drums
flute
harmonica
guitar pro
video
Ultimate-Tabs

I Will Be Right Here

(intro) C G Am F G 

(solo intro) 
    C         G         Am     F  G 
E|-3-3-1-0------0-1-0--------0-----------| 
B|--------3--3-3-------1-1-3--3-1-0------| 
G|----------------------------------2-0--| 
D|---------------------------------------| 
A|---------------------------------------| 
E|---------------------------------------| 

    C         G         Am      F  G 
E|-3-3-1-0------0-1-0--------0-1-0-------| 
B|--------3--3-3-------1-1-3------3-1-0-1| 
G|---------------------------------------| 
D|---------------------------------------| 
A|---------------------------------------| 
E|---------------------------------------| 

(faz dedilhado ou palhetada) 
    C       G       Am      F       G 
E|-------3-----------------------1-------3-| 
B|---------------3-------1-----------------| 
G|-----0---------------2-------2-----------| 
D|---2---------0-----2-------3---------0---| 
A|-3---------2-----0-----------------2-----| 
E|---------3---------------1-------3-------| 

    C       G       Am      F    G  Am        F 
E|-------3-------3-------------------------0---------1-| 
B|-------1-------3-------1---------------1-1-------1-1-| 
G|-----0---------------2---------------2---------2-----| 
D|---2---------0-----2---------------2---------3-------| 
A|-3---------2-----0---------------0---------3---------| 
E|---------3---------------1----3----------------------| 

(parte 1) 
    C       G       Am      F       G 
E|-------0-------3-------0-------1-------3-| 
B|-------1-------3-------1---------------3-| 
G|-----0---------------2-------2-----------| 
D|---2---------0-----2-------3---------0---| 
A|-3---------2-----0-----------------2-----| 
E|---------3---------------1-------3-------| 

(parte 1) 
C         G               Am 
 Oceans apart, day after day 
       F      G 
 And I slowly go insane 
C             G              Am 
 I hear your voice, on the line 
         F      G 
 But it doesn't stop the pain 

(parte 2) 
    C         F       G 
E|---------0-------1-------3-| 
B|-------1-1-------1-------3-| 
G|-----0---------2-------0---| 
D|---2---------3-------0-----| 
A|-3-------------------------| 
E|-----------1-------3-------| 

(parte 2) 
C             F       G 
 If I see you next to never 
c           F     G 
 How can we say forever? 

(Refrão) 
    C       G       Am      F       G 
E|-------3-----------------------1-------3-| 
B|---------------3-------1-----------------| 
G|-----0---------------2-------2-----------| 
D|---2---------0-----2-------3---------0---| 
A|-3---------2-----0-----------------2-----| 
E|---------3---------------1-------3-------| 

    C       G       Am      F    G  Am        F 
E|-------3-------3-------------------------0---------1-| 
B|-------1-------3-------1---------------1-1-------1-1-| 
G|-----0---------------2---------------2---------2-----| 
D|---2---------0-----2---------------2---------3-------| 
A|-3---------2-----0---------------0---------3---------| 
E|---------3---------------1----3----------------------| 

C               G             Am 
 Wherever you go,whatever you do 
             F          G 
 I will be right here waiting for you 
C                  G                   Am 
 Whatever it takes, and how my heart breaks 
           F          G 
 I will be right here waiting for you 

(parte 3) 
    C       G       Am      F       G 
E|-------0-------3-------0-------1-------3-| 
B|-------1-------3-------1---------------3-| 
G|-----0---------------2-------2-----------| 
D|---2---------0-----2-------3---------0---| 
A|-3---------2-----0-----------------2-----| 
E|---------3---------------1-------3-------| 

(parte 3) 
C                  G            Am 
 I took for granted, all the times 
        F              G 
 That I thought would last somehow 
C                  G                 Am 
 I hear the laughter, i taste the tears 
       F         G 
 But I can't get near you now 

(parte 4) 
  C         F       G 
E|---------0-------1-------3-| 
B|-------1-1-------1-------3-| 
G|-----0---------2-------0---| 
D|---2---------3-------0-----| 
A|-3-------------------------| 
E|-----------1-------3-------| 

(parte 4) 
C             F      G 
 Oh cant you see it, baby 
C             F       G 
 Youve got me going crazy 

(Refrão) 
    C       G       Am      F       G 
E|-------3-----------------------1-------3-| 
B|---------------3-------1-----------------| 
G|-----0---------------2-------2-----------| 
D|---2---------0-----2-------3---------0---| 
A|-3---------2-----0-----------------2-----| 
E|---------3---------------1-------3-------| 

    C       G       Am      F    G 
E|-------3-------3----------------| 
B|-------1-------3-------1--------| 
G|-----0---------------2----------| 
D|---2---------0-----2------------| 
A|-3---------2-----0--------------| 
E|---------3---------------1----3-| 

C               G             Am 
 Wherever you go,whatever you do 
             F          G 
 I will be right here waiting for you 
C                  G                   Am 
 Whatever it takes, and how my heart breaks 
           F          G 
 I will be right here waiting for you 

(parte 5) 
C                    Am               F 
 I wonder how we can survive, this romance 
C                           Am                   G 
 But in the end if I'm with you, I'll take the chance 

(solo) C G Am F G 

    C         G         Am     F  G 
E|-3-3-1-0------0-1-0--------0-----------| 
B|--------3--3-3-------1-1-3--3-1-0------| 
G|----------------------------------2-0--| 
D|---------------------------------------| 
A|---------------------------------------| 
E|---------------------------------------| 

    C         G         Am      F  G 
E|-3-3-1-0------0-1-0--------0-0h1-0--------| 
B|--------3--3-3-------1-1-3---------3-1-0-1| 
G|------------------------------------------| 
D|------------------------------------------| 
A|------------------------------------------| 
E|------------------------------------------| 

(parte 6) 
  C         F       G 
E|---------0-------1-------3-| 
B|-------1-1-------1-------3-| 
G|-----0---------2-------0---| 
D|---2---------3-------0-----| 
A|-3-------------------------| 
E|-----------1-------3-------| 

C            F       G 
 Oh cant you see it, baby 
C              F       G 
 You've got me going crazy 

(Refrão) 
C               G             Am 
 Wherever you go,whatever you do 
             F          G 
 I will be right here waiting for you 
C                  G                   Am 
 Whatever it takes, and how my heart breaks 
           F          G 
 I will be right here waiting for you 

(solo final) 
  C         G         Am     F  G 
E|-3-3-1-0------0-1-0--------0-----------| 
B|--------3--3-3-------1-1-3--3-1-0------| 
G|----------------------------------2-0--| 
D|---------------------------------------| 
A|---------------------------------------| 
E|---------------------------------------| 

  C         G         Am      F  G          C 
E|-3-3-1-0------0-1-0--------0-0h1-0--------| 
B|--------3--3-3-------1-3-----------3-1-0-1| 
G|------------------------------------------| 
D|------------------------------------------| 
A|------------------------------------------| 
E|------------------------------------------|  
less
plus
Add to Songbook Print Version How to play lesson Submit videolesson
Click the best TAGS for this song:
None of them
Contributor: abcvmaxi Correct

If you can not find the chords or tabs you want, look at our partner E-chords. If you are a premium member, you have total access to our video lessons.

If you find a wrong Bad To Me from Bryan Adams, click the correct button above.

login/signup
my songbooks
my recent views
my submits