Bryan Adams

Summer of 69 bass

Bryan Adams

Album:Bryan Adams

Year:2004

tools Ultimate Tabs

Start AutoScroll Font Size Down Font Size Up

Find us on Facebook

chords tabs
bass
ukulele keyboards
drums
flute
harmonica
guitar pro video
Ultimate-Tabs

Summer of 69

                                                                              
G||------------------|------------------|------------------|------------------| 
D||------------------|------------------|------------------|------------------| 
A||------------------|------------------|------------------|------------------| 
E||------------------|------------------|------------------|------------------| 
 
 
                                                                             
------------------|------------------|------------------|------------------| 
------------------|------------------|------------------|------------------| 
------------------|------------------|------------------|------------------| 
------------------|------------------|------------------|------------------| 
 
 
                                                                             
------------------|------------------|------------------|------------------| 
------------------|------------------|------------------|------------------| 
------------------|------------------|------------------|------------------| 
------------------|------------------|------------------|------------------| 
 
 
                                                                             
------------------|------------------|------------------|------------------| 
------------------|------------------|------------------|------------------| 
------------------|------------------|------------------|------------------| 
------------------|------------------|------------------|------------------| 
 
 
                                                              
------------------|------------------|----------------------| 
------------------|------------------|--------5--4----------| 
------------------|------------------|--------------0----0--| 
------------------|------------------|----------------------| 
 
 
                                                                        
-----------------------|-----------------------|----------------------| 
-----------------------|-----------------------|----------------------| 
--2------2----2--2--2--|--0------0----0--2--4--|--5------5------------| 
-----------------------|-----------------------|--------------0--4----| 
 
 
                                                                        
----------------------|-----------------------|-----------------------| 
----------------------|-----------------------|-----------------2-----| 
-----------------0----|--2------2----2--2--2--|--0------0----0-----0--| 
--5--------5--5-------|-----------------------|-----------------------| 
 
 
                                                                       
----------------------|----------------------|-----------------------| 
----------------------|----------------------|-----------------------| 
--5------5------------|-----------------0----|--2------2----2--2--2--| 
--------------0--4----|--5------4--5---------|-----------------------| 
 
 
                                                                        
-------------------|------------------------|-------------------------| 
-------------------|------------------------|-------------------------| 
--0----------------|-------------------5----|-------------------------| 
-------------------|--0----0--0--0--0-------|--0--0--0--0--0--0--4/---| 
 
 
                                                                             
-------------------------|--------------------------|----------------------| 
-------------------------|--------------------------|----------------------| 
--0----0--0--0--0--0--0--|--------------------------|----------------------| 
-------------------------|--7--7--7--7--7--7--7--7--|--0------0--0------0--| 
 
 
                                                                      
----------------------|----------------------|----------------------| 
----------------------|----------------------|----------------------| 
----------------------|--0------0--0------0--|--0------0--0----0----| 
--0------0--0----4/---|----------------------|----------------------| 
 
 
                                                                      
----------------------|----------------------|----------------------| 
----------------------|----------------------|-----------------7----| 
----------------------|----------------------|--0------0--0---------| 
--0------0--0------0--|--0------0--0----4/---|----------------------| 
 
 
                                                                        
---------------------|-----------------------|------------------------| 
--------5/-7---------|-----------------------|------------------2-----| 
------------------0--|--2------2--2----2--2--|--0------0--0--0-----0--| 
---------------------|-----------------------|------------------------| 
 
 
                                                                    
---------------------|----------------------|---------------------| 
---------------------|----------------------|---------------------| 
--5------------------|-------------------0--|--2------2--2--------| 
-------------0--4----|--5----------4--5-----|---------------------| 
 
 
                                                                         
------------------------|-----------------------|----------------------| 
---------------2--4--2--|-----------------------|----------------------| 
--0------0--0-----------|--5------5--5----------|-----------------0----| 
------------------------|---------------0--4----|--5--------5--5-------| 
 
 
                                                                       
----------------------|---------------------|------------------------| 
----------------------|---------------------|------------------------| 
--2--------2--2--2----|--0------------12\---|-------------------5----| 
----------------------|---------------------|--0----0--0--0--0-------| 
 
 
                                                                                
-------------------------|-------------------------|--------------------------| 
-------------------------|-------------------------|--------------------------| 
-------------------------|--0----0--0--0--0--0--0--|--0--0--0--0--0--0--0--0--| 
--0--0--0--0--0--0--4/---|-------------------------|--------------------------| 
 
 
                                                                               
-------------------------|-------------------------|-------------------------| 
-------------------------|-------------------------|-------------------------| 
-------------------------|--5----------------------|--0----0--0--0--0--0--0--| 
--0----0--0--0--0--0--0--|-----0--0--0--0--0--4/---|-------------------------| 
 
 
                                                                                
--------------------------------|---------------------|-----------------------| 
--------------------------------|---------------------|-----------------------| 
--0--0/-12--12--12--12--12--12--|---------------------|--1------1--1--1--1----| 
--------------------------------|--3------3--3--------|-----------------------| 
 
 
                                                                      
----------------------|----------------------|----------------------| 
----------------------|----------------------|----------------------| 
--3------3--3----3----|----5--5----5----1----|----------------------| 
----------------------|----------------------|--3------3--3----3----| 
 
 
                                                                                
----------------------|----------------------|--------------------------------| 
----------------------|----------------------|--------------------------------| 
--1------1--1----1----|--3------3--3----3/---|--15--15--15--15--15--15--12\---| 
----------------------|----------------------|--------------------------------| 
 
 
                                                                                
-------------------|-------------------|-------------------|------------------| 
-------------------|-------------------|-------------------|------------------| 
-------------------|-------------------|--0----------------|------------------| 
--0----------------|--------------4/---|-------------------|------------------| 
 
 
                                                             
-------------------|-------------------|-------------------| 
-------------------|-------------------|-------------------| 
-------------------|-------------------|--0----------------| 
--0----------------|--------------4/---|-------------------| 
 
 
                                                                      
----------------------|----------------------|----------------------| 
----------------------|----------------------|----------------------| 
----------12----12\---|----------------------|----------------------| 
----------------------|--0------0--0------0--|--0------0--0----4/---| 
 
 
                                                                      
----------------------|----------------------|----------------------| 
----------------------|----------------------|----------------------| 
--0------0--0------0--|--0------0--0----0----|----------------------| 
----------------------|----------------------|--0------0--0------0--| 
 
 
                                                                     
----------------------|----------------------|---------------------| 
----------------------|-----------------7----|--------5/-7---------| 
----------------------|--0------0--0---------|------------------0--| 
--0------0--0----4/---|----------------------|---------------------| 
 
 
                                                                        
-----------------------|------------------------|---------------------| 
-----------------------|------------------2-----|---------------------| 
--2------2--2----2--2--|--0------0--0--0-----0--|--5------------------| 
-----------------------|------------------------|-------------0--4----| 
 
 
                                                                       
----------------------|---------------------|------------------------| 
----------------------|---------------------|---------------2--4--2--| 
-------------------0--|--2------2--2--------|--0------0--0-----------| 
--5----------4--5-----|---------------------|------------------------| 
 
 
                                                                       
-----------------------|----------------------|----------------------| 
-----------------------|----------------------|----------------------| 
--5------5--5----------|-----------------0----|--2--------2--2--2----| 
---------------0--4----|--5--------5--5-------|----------------------| 
 
 
                                                                          
---------------------|------------------------|-------------------------| 
---------------------|------------------------|-------------------------| 
--0------------12\---|-------------------5----|-------------------------| 
---------------------|--0----0--0--0--0-------|--0--0--0--0--0--0--4/---| 
 
 
                                                                                
-------------------------|--------------------------|-------------------------| 
-------------------------|--------------------------|-------------------------| 
--0----0--0--0--0--0--0--|--0--0--0--0--0--0--0--0--|-------------------------| 
-------------------------|--------------------------|--0----0--0--0--0--0--0--| 
 
 
                                                                               
-------------------------|-------------------------|-------------------------| 
-------------------------|-------------------------|-------------------------| 
--5----------------------|--0----0--0--0--0--0--0--|--0--0--0--0--0--0-------| 
-----0--0--0--0--0--4/---|-------------------------|--------------------7\---| 
 
 
                                                                               
-------------------------|-------------------------|-------------------------| 
-------------------------|-------------------------|-------------------------| 
-------------------------|--5----------------------|--0----0--0--0--0--0--0--| 
--0----0--0--0--0--0--0--|-----0--0--0--0--0--4/---|-------------------------| 
 
 
                                                                                
--------------------------|-------------------------|-------------------------| 
--------------------------|-------------------------|-------------------------| 
--0--0--0--0-----0--------|-------------------------|--5----------------------| 
--------------4-----4--2--|--0----0--0--0--0--0--0--|-----0--0--0--0--0--4/---| 
 
 
                                                                           
--------------------------|------------------------|---------------------| 
--------------------------|------------------------|---------------------| 
--0----0/-12--0--0--0--0--|--0--0--0--0--12\-------|---------------------| 
--------------------------|------------------------|--0------0--0--------| 
 
 
                                                                            
-------------------------|---------------------|--------------------------| 
-------------------------|---------------------|--------------------------| 
--5----------------------|--0------0--0--------|--0------0/-12--12--12\---| 
-----0--0--0--0--0--4/---|---------------------|--------------------------| 
 
 
                                                                               
-------------------------|-------------------------|-------------------------| 
-------------------------|-------------------------|-------------------------| 
-------------------------|--5----------------------|--0----0--0--0--0--0--0--| 
--0----0--0--0--0--0--0--|-----0--0--0--0--0--4/---|-------------------------| 
 
 
                                                             
---------------------------------|-------------------------| 
---------------------------------|-------------------------| 
--0/-12--12--12--12--12--12--12--|-------------------------| 
---------------------------------|--0----0--0--0--0--0--0--| 
 
 
                                                                                 
-------------------------|-------------------------|--------------------------|| 
-------------------------|-------------------------|--------------------------|| 
--5----------------------|--0----0--0--0--0--0--0--|--0--0--0--0--0--0--0--0--|| 
-----0--0--0--0--0--4/---|-------------------------|--------------------------|| 
 
less
plus
Add to Songbook Print Version How to play lesson Submit videolesson
Click the best TAGS for this song:
None of them
Contributor: PhilSeba Correct

If you can not find the chords or tabs you want, look at our partner E-chords. If you are a premium member, you have total access to our video lessons.

If you find a wrong Bad To Me from Bryan Adams, click the correct button above.

login/signup
my songbooks
my recent views
my submits