Carole King

It's Too Late bass

Carole King

tools Ultimate Tabs

Start AutoScroll Font Size Down Font Size Up

Find us on Facebook

chords
tabs
bass
ukulele keyboards
drums
flute
harmonica
guitar pro video
Ultimate-Tabs

It's Too Late

-----------------------------------------------------------------------------
                      IT'S TOO LATE BABY - Carole King
-----------------------------------------------------------------------------

Tabbed by: Matt Broback
E-mail: [email protected]

Tuning: E A D G

VERSE             x4
|---------|---------|
|:--------|--------:|
|:0----305|--------:|
|---------|---------|

PRECHORUS 1
|--------|--------|--------|--------|
|--------|-------2|3--33--3|33-3----|
|0--000-0|----023-|--------|--------|
|--------|33-3----|--------|--------|

CHORUS 1
|----------|---..-----|---------|------/2-|-----------|--------|
|:----..--2|33-3333-3:|----..--2|33-333--3|00-02/3-/3-|22-22---|
|:11010013-|---------:|11010013-|---------|-----------|--------|
|----------|----------|---------|---------|-----------|--------|

VERSE             x4
|---------|---------|
|:--------|--------:|
|:0----305|--------:|
|---------|---------|

PRECHORUS 2
|--------|--------|--------|--------|
|--------|-------2|3--33--3|33-3----|
|0--000-0|----023-|--------|--------|
|--------|3--3----|--------|--------|

CHORUS 2
|----------|---..-----|---------|------/2-|-----------|--------|
|:----..--2|33-3333-3:|----..--2|33-333--3|00-02/3-/3-|5--55---|
|:11010013-|---------:|11010013-|---------|-----------|--------|
|----------|----------|---------|---------|-----------|--------|

SOLO
|--------|---------|3-----32|----2---|--------|--------|--------|--------|
|-----023|---..--23|-----3--|---2-2--|-------2|3-----23|0--00--0|2--22---|
|3--33---|---0013--|--------|------00|----013-|---313--|--------|--------|
|--------|---------|--------|--------|33-3----|--------|--------|--------|

|--------|----9---|---------|---9-----|----------|---9----|--------|---9-----|
|------70|------0-|:------70|-----70-:|:------/70|-----70-|------70|-----70-:|
|0----7--|-----0-7|:0----7--|-------7:|:0----7---|-------7|0----7--|-------7:|
|--------|--------|---------|---------|----------|--------|--------|---------|

VERSE             x4
|---------|---------|
|:--------|--------:|
|:0----305|--------:|
|---------|---------|

PRECHORUS 3
|--------|--------|--------|--------|
|--------|-------2|3--33--3|33-3----|
|00-000-0|----023-|--------|--------|
|--------|3--3----|--------|--------|

CHORUS 3
|----------|---------|---------|------/2-|--------|--------|
|:----..--2|33-333-3:|----..--2|33-333--3|00--00--|55-555--|
|:11010013-|--------:|11010013-|---------|--------|------02|
|----------|---------|---------|---------|--------|--------|

OUTRO                                             . ..
|--------|-------2|3--33532|-2----57|---7----|---10109-.--|--------|00-0----|
|-----023|-----23-|--------|---777--|5---5553|--------10--|0--000-0|--------|
|3--33---|---03---|--------|--------|--------|----------87|--------|------12|
|--------|--------|--------|--------|--------|------------|--------|----33--|

|--------|--------|--------|--------|--------|--------|
|-----023|---333-3|-----023|---333-3|--------|--------|
|3--33---|--------|3--33---|--------|3--33--3|33-3----|
|--------|--------|--------|--------|--------|--------|
less
plus
Add to Songbook Print Version How to play lesson Submit videolesson
Click the best TAGS for this song:
None of them
Contributor: danibltl Correct

If you can not find the chords or tabs you want, look at our partner E-chords. If you are a premium member, you have total access to our video lessons.

If you find a wrong Bad To Me from Carole King, click the correct button above.

login/signup
my songbooks
my recent views
my submits