Celine Dion

My Heart Will Go On (ver. 2) tab

Celine Dion

tools Ultimate Tabs

Start AutoScroll Font Size Down Font Size Up

Find us on Facebook

chords
tabs
bass
ukulele keyboards
drums
flute
harmonica
guitar pro
video
Ultimate-Tabs

My Heart Will Go On (ver. 2)

INTRO:(scale:e) 
e------------------------------7------------------------- 
b--------7-7-9----797------7--------9--7---------------- 
g----9-------------------9-----------------9--6---------- 
d-------------------------------------------------79----- 
a 
E 
 intro(contd): 
e------------------------------7---------7-9-7----------- 
b--------7-7-9-----797-----7---------9---------797------ 
g----9--------------------9------------------------------ 
d-------------------------------------------------------- 
a 
E 
 
Song: 
e--------------------------------------------------------------------------------- 
b-------------------------------7--9--7-----------------------------------------------(REPEAT)       
g----9--9-9--9-8-9------9-8-9----------------------9--9-9--9-8-9-----9------------------------        
d------------------------------------------------------------------------9----7--- 
a 
E 
 
e----------------7---5---4---242-------4-5-4--2--------------------------------- 
b----45--57--------------------------------------5-4-5-----5-2---------------- 
g---------------------------------------------------------------4-------------- 
d------------9----------------------------------------------------------------- 
a 
E 
 
e----------------7---5---4---242-------4-5-4--2--------------------2--4--2----42-------- 
b----45--57--------------------------------------5-4-5-----5-4-5-------------------5--- 
g------------------------------------------------------------------------------------ 
d------------9---------------------------------------------------------------------- 
a 
E 
  
             REPEAT                                              THE SONG 
bgm: 
e------------------------------7------------------------- 
b--------7-7-9----797------7--------9--7---------------- 
g----9-------------------9-----------------9--6---------- 
d-------------------------------------------------79----- 
a 
E 
bgm(contd): 
e-------------------------------7---------7--9--11--12---14---- 
b---------7-7-9----797------7--------9------------------------ 
g----9--------------------9------------------------------------ 
d-------------------------------------------------------------- 
a 
E 
 
scale change(g#)Song--- 
 
e----------------------11---9---8---686-------8-9-8--6----------------------------- 
b----89--9.10--------------------------------------------9-8-9-----9-6------------- 
g---------------------------------------------------------------------------8-- 
d----------------13--------------------------------------------------------- 
a 
E 
 
e-----------------------11---9---8---686-------8-9-8--6--------------------6--8--6----86--- 
b----89--9.10--------------------------------------------9-8-9-----9-8-9-----------------9- 
g-------------------------------------------------------------------------------------- 
d----------------13-------------------------------------------------------------------- 
a 
E 
 
ending solo 
e-----------11---9-8-------------------13---11-9-8------------------------- 
b--9---11------------11-9----9----11----------------11------9---11---9-9---      
g-------------------------------------------------------------------------- 
d------------------------------------------------------------------------- 
a 
E 
  
 at the end harp the g# chord 
 that's it for this song ...its  very easy                  
 n fun to play this song. 
 
have fun dudes!!! 
 
 if you have any suggestions,corrections n questions email me at [email protected]      
less
plus
Add to Songbook Print Version How to play lesson Submit videolesson
Click the best TAGS for this song:
None of them
Contributor: legomari Correct

If you can not find the chords or tabs you want, look at our partner E-chords. If you are a premium member, you have total access to our video lessons.

If you find a wrong Bad To Me from Celine Dion, click the correct button above.

login/signup
my songbooks
my recent views
my submits