Celine Dion

My Heart Will Go On (ver. 4) tab

Celine Dion

tools Ultimate Tabs

Start AutoScroll Font Size Down Font Size Up

Find us on Facebook

chords
tabs
bass
ukulele keyboards
drums
flute harmonica
guitar pro
video
Ultimate-Tabs

My Heart Will Go On (ver. 4)

Celine Dion ? My heart will go on 
 
 
|--------------------------------------------------------------------| 
|--------------------------------------------------------------------| 
|--------------------------------------------------------------------| 
|--------------------------------------------------------------------| 
|----------4-----4--------------------4-----0---0--------------------| 
|--0--0-0-0--0--0--0--0-4-2---0--0-0-0--0-0--------------------------| 
 
|--------------------------------------------------------------------| 
|--------------------------------------------------------------------| 
|--------------------------------------------------------------------| 
|--------------------------------------------------------------------| 
|----------4-----4--------------------4-----0---0--------------------| 
|--0--0-0-0--0--0--0--0-4-2---0--0-0-0--0-0--------------------------| 
 
|--------------------------------------------------------------------| 
|--------------------------------------------------------------------| 
|--------------------------------------------------------------------| 
|--------------------------------------------------------------------| 
|--------0--12-10-9-7--9-10-9--7--5-4-5--4-2--0----------------------| 
|--0--2--------------------------------------------------------------| 
 
|--------------------------------------------------------------------| 
|--------------------------------------------------------------------| 
|--------------------------------------------------------------------| 
|--------------------------------------------------------------------| 
|--------0--12-10-9-7--9-10-9--7--5-4-5--4-4-5--7-9--7--5-5----------| 
|--0--2--------------------------------------------------------------| 
 
 
less
plus
Add to Songbook Print Version How to play lesson Submit videolesson
Click the best TAGS for this song:
None of them
Contributor: pangfern Correct

If you can not find the chords or tabs you want, look at our partner E-chords. If you are a premium member, you have total access to our video lessons.

If you find a wrong Bad To Me from Celine Dion, click the correct button above.

login/signup
my songbooks
my recent views
my submits