Chew Lips

Play Together bass

Chew Lips

chords
tabs
bass
ukulele
keyboards
drums
flute
harmonica
guitar pro
video
Ultimate-Tabs

Play Together

-------------------------------------------------------------------------------
			     Play Together - CHEW LiPS
you can find this band at
Website:
http://www.chewlips.co.uk
-------------------------------------------------------------------------------
This song is going to be pretty short as there is only 3 riffs throughout the song. Its
electro-pop trio with a female singer and two guys on synths, the bassist switches
both. Its fairly easy to giure out once u cath the sound of the bass that comes in two 
after the intro.

Tabbed By : Moggzyismetal
e-mail: [email protected]

Time: 0:25

G|---------------------------------------------------------------------------|
D|-----10-10/8----------8-----8---------13-13\15------------15-------15------|
A|---------------------------------------------------------------------------|
E|-8-8---------6-6-6--6---6-6----\11-11----------13-13-13-13---13-13---------|

repeat that twice
Not too sure on the next bit with the notes that are in the slides
 0:49
G|---------------------------------------------------------------------------|
D|-10-10-10-10-10-10-/10-\13-10-10-10-10-10-10-10-10-10-10-8-----------------|
A|---------------------------------------------------------------------------|
E|---------------------------------------------------------------------------|

this is the last riff that isnt repeated throughout the song
 and this is only played thrice
1:30
G|---------------------------------------------------------------------------|
D|-10--10--13--13--15--15--15--15--------------------------------------------|
A|---------------------------------------------------------------------------|
E|---------------------------------------------------------------------------|

The rest of the song is the chorus/verse repeated which im sure you can figure out yourselves

enjoy :)


| /  slide up
| \  slide down
| h  hammer-on
| p  pull-off
| ~  vibrato
| +  harmonic
| x  Mute note
less
plus
Add to Songbook Print Version How to play lesson Submit videolesson
Click the best TAGS for this song:
None of them
Contributor: neveTIM_ Correct

If you can not find the chords or tabs you want, look at our partner E-chords. If you are a premium member, you have total access to our video lessons.

If you find a wrong Bad To Me from Chew Lips, click the correct button above.

login/signup
my songbooks
my recent views
my submits