Chris Isaak

Back On Your Side tab

Chris Isaak

tools Ultimate Tabs

Start AutoScroll Font Size Down Font Size Up

Find us on Facebook

chords
tabs
bass
ukulele
keyboards
drums
flute
harmonica
guitar pro
video
Ultimate-Tabs

Back On Your Side

-------------------------------------------------------------------------------
                             Back on Your Side - Chris Isaak
-------------------------------------------------------------------------------
Tabbed by: Joseph

Tuning: EADGBe

Intro:

   C           x2             Am

e|-0-----------------|--5-----------------|
B|----1-----3--0-----|-----5-----8--5-----|
G|-------0-----------|--------5-----------|
D|-------=-----------|--------------------|
A|-------------------|--------------------|
E|-------------------|--------------------|

Verse ( C     Am  )        Verse Fill (Fills are all in the Am Pentatonic Scale)        

e|------0------0--------|----------------------------------------|
B|-----=1------1--------|-------------------------------8p5------|
G|------0------2--------|--7p5--7p5--7/9-------7p5--7p5----------|
D|-----=2------2--------|----------------------------------------|
A|------3------0--------|----------------------------------------|
E|----------------------|----------------------------------------|

Pre-Chorus  ( Am      G  )

e|------------0------3------------|
B|------------1------3------------|
G|------------2------0------------|
D|------------2------0------------|
A|------------0------2------------|
E|-------------------3------------|

Chorus   (  C    Am  ) (with Fill)   (The Am might be hard to hear, but it is definitely there)

Intro

Pre-Chorus

Chorus/Intro Riff


Easy song that revolves around three chords.  For all the fills I left out, just stick to your
tried-and-true major pentatonic scale and improvise.  Shouldn't be hard.  Sounds really nice on 
an acoustic.

************************************

| /   slide up
| \   slide down
| h   hammer-on
| p   pull-off
| ~   vibrato
| +   harmonic
| x   Mute note
| b   Bend
| pb  Pre-bend
| br  Bend release
| pbr Pre-bend release
| brb Bend release bend

************************************
less
plus
Add to Songbook Print Version How to play lesson Submit videolesson
Click the best TAGS for this song:
None of them
Contributor: THE1jacp Correct

If you can not find the chords or tabs you want, look at our partner E-chords. If you are a premium member, you have total access to our video lessons.

If you find a wrong Bad To Me from Chris Isaak, click the correct button above.

login/signup
my songbooks
my recent views
my submits