Chris Isaak

Blue Spanish Sky chords

Chris Isaak

Album:Best of

Year:2006

tools Ultimate Tabs

Start AutoScroll Font Size Down Font Size Up

Find us on Facebook

chords
tabs
bass
ukulele keyboards
drums
flute
harmonica
guitar pro
video
Ultimate-Tabs

Blue Spanish Sky

Intro. Riff 
|-----------------------|----------------------| 
|-----------------------|----------------------| 
|-----------------------|----------------------| 
|---------2-2h3p--------|---------2-0----------| 
|--2-3--5--------3-2----|--2-3--5-----3-2-0----| 
|--------------------0--|-------------------3--| 
Intro Chords: Am G F E Am G F E It's a big blue spanish sky Am G F E Lay on my back and watch clouds roll by Am G F E I've got the time to wonder why Am G F E She left me. Am G F E It's a slow sad spanish song Am G F E I knew the words but I sang them wrong Am G F E The one I love has left and gone Am G F E Without me. C G Now she's gone, our world has changed E Am G F E Watching a blue sky, thinking of rain
(Pre-Solo Riff) 
|------------| 
|------------| 
|------------| 
|------0h1p--| 
|--2-3-------| 
|------------|
Trumpet Solo: Am-G-F-E Am G F E It's a slow sad spanish song Am G F E I knew the words but I sang them wrong Am G F E The one that I love has left and gone Am G F E Without me. Am G F E It's a big blue spanish sky Am G F E I Lay on my back and watch clouds roll by Am G F E I only wish I could make you cry Am G F E Like I do. Am G F E Like I do Am G F E Like I do Am G F E Am G F E
(Ending Riff) 
----------------| 
----------------| 
----------------| 
----------------| 
-2h3p--3h2p--2--| 
----------------| 
Am
less
plus
Add to Songbook Print Version How to play lesson Submit videolesson
Click the best TAGS for this song:
None of them
Contributor: ozzivalo Correct

If you can not find the chords or tabs you want, look at our partner E-chords. If you are a premium member, you have total access to our video lessons.

If you find a wrong Bad To Me from Chris Isaak, click the correct button above.

login/signup
my songbooks
my recent views
my submits