Chris Isaak

Wicked Game chords

Chris Isaak

Album:Best of

Year:2006

chords
tabs bass ukulele keyboards
drums
flute
harmonica
guitar pro
Ultimate-Tabs

Wicked Game

   


INTRO: Bm A E  

 
e|----------------------------------------------------------| 
B|--0(AL)--6b7--r6\---0--0(AL)--6b7------5-3-2--------------| 
G|-------------------------------------6-------4------2---1-| 
D|-----------------------------------7------------2/4---2---| 
A|----------------------------------------------------------| 
E|----------------------------------------------------------| 

e|----2--------0--------------------------------------------| 
B|------3--------3------2--------0--------------------------| 
G|--------4--------4------4--------2--------2---1-----1-2/4-| 
D|--4-----------------------4--------2----2---2----2--------| 
A|----------------------------------------------------------| 
E|----------------------------------------------------------|   

Bm A E The world was on fire and no one could save me but you. Bm A E It's strange what desire will make foolish people do. Bm A E I never dreamed that I'd meet somebody like you. Bm A E I never dreamed that I'd love somebody like you. Bm11 A E I don't want to fall in love. (This world is only gonna break your heart) Bm11 A E I don't want to fall in love. (This world is only gonna break your heart) Bm11 A E Bm A E With you. With you. (This world is only gonna break your heart) Bm A E What a wicked game to play, to make me feel this way. Bm A E What a wicked thing to do, to let me dream of you. Bm A E What a wicked thing to say, you never felt this way. Bm A E What a wicked thing to do, to make me dream of you and, Bm11 A E I don't want to fall in love. (This world is only gonna break your heart) Bm11 A E I don't want to fall in love. (This world is only gonna break your heart) Bm11 A E Bm A E With you. With you. Bm A E The world was on fire and no one could save me but you. Bm A E It's strange what desire will make foolish people do. Bm A E I never dreamed that I'd love somebody like you. Bm A E I never dreamed that I'd loose somebody like you no, Bm11 A E I don't want to fall in love. (This world is only gonna break your heart) Bm11 A E I don't want to fall in love. (This world is only gonna break your heart) Bm11 A E Bm A E With you. With you. (This world is only gonna break your heart) Bm A E Nobody loves no one.
less
plus
Add to Songbook Print Version How to play lesson Submit videolesson
Click the best TAGS for this song:
None of them
Contributor: maripoke Correct

If you can not find the chords or tabs you want, look at our partner E-chords. If you are a premium member, you have total access to our video lessons.

If you find a wrong Bad To Me from Chris Isaak, click the correct button above.

login/signup
my songbooks
my recent views
my submits