chords
tabs
bass
ukulele
keyboards
drums
flute
harmonica
guitar pro
video
Ultimate-Tabs

Know

Standard tuning 
figure out the timing yourself and stuff. 
normally I only try figuring out punk stuff, but since I like the song, and I'm in a teen 
praise band I figure might as well tab it and since it was done I figure I'll send it out. 
Intro: 
B        C#           A         B         C#       A 
D|---9---9---11---7---7---9---|---9---9---11---7---7---9---| 
 
B                                       A               B	 
I here the sound of your voice whispering on the wind. 
D|---/9---9---11^--9---11^--9---7---9---7---------- 
 
B                     A                      B	 
There is life as your spirit moves within. 
D|---/9---9---11^--9---11^--9---7---9-------------- 
 
D          A 
I will sing 
 
(gtr.1 does this it's tremolo picking, and I'm not sur how many times but if you listen to 
the cd then you should be able to figure it out.) 
B|---12^-12^-12^-12^ 
 
(gtr. 2 does this ) 
A |  ------2------------2---- 
E |  0-2-4---0-2--0-2-4---0-2 
 
D               A                               B 
Holy is the name        B|--15-14-12----        Of our God 
                        G|------------14	 
 
then the next verse is the same as the first one, and same with the chorus except for one 
partnear the end of the chorus where it goes from C# to D instead of the little fill 
 
Solo 
G |---------------7--9-------------7^------------------12--14-----------------12^ 
A |---------7--9--------------7--9-------------12--14-----------------12--14----- 
E |---7-10-------------7--10----------12--14------------------12--14------------- 
 
well that's basically it 
if you have any corrections or  comments then send them to me at  
[email protected] 
 
less
plus
Add to Songbook Print Version How to play lesson Submit videolesson
Click the best TAGS for this song:
None of them
Contributor: veslAtom Correct

If you can not find the chords or tabs you want, look at our partner E-chords. If you are a premium member, you have total access to our video lessons.

If you find a wrong Bad To Me from Chris Janzen Band, click the correct button above.

login/signup
my songbooks
my recent views
my submits