tools Ultimate Tabs

Start AutoScroll Font Size Down Font Size Up

Find us on Facebook

chords
tabs
bass
ukulele
keyboards
drums
flute
harmonica
guitar pro
video
Ultimate-Tabs

Rumples

E-------------------------------|-----------------------|----------------| 
B-------------------11-13-------|-----------------------|----------------| 
G-------------13-10-------------|-----------------------|----------------| 
D-------5-10-------------3-4-3--|--3-4-2h3----------4h5-|-2h3--------3-4-| 
A---3-4----------------------3--|--4-5-----3------2-----|----3-------4-5-| 
E-1--------------------------1--|-----------0-1-0-------|------1-2-1-----| 

0:12  

part a             part b 
E------------------|----------------| 
B------------------|----------------| 
G------------------|----------------| 
D-2h3---------4h5--|--2h3-------3-4-|   x2 
A----3-------2-----|-----3------4-5-| 
E-----0-1-0--------|------1-2-1-----| 

play part a once more 

0:29                                            0:33 

E--------------------------------------------------|---------------| 
B-----1-0-------------------1--------------------1-|---------------| 
G-2-1------2-----2-1-0-3--1---3-2---1---2-1--1-3---|-1---2-----3-5-| 
D------------3-4--------3---------4---3----3-------|---3---4-5-----| 
A--------------------------------------------------|---------------| 
E--------------------------------------------------|---------------| 

        0:35 

E---------------|---------------------------------| 
B-----------1---|-----------------------1---------| 
G-1-----0-1---2-|-1---2-1--3-2--------2---2-----2-| 
D---3-2---------|---3----3----3-4-1-4-------1-4---| 
A---------------|---------------------------------| 
E---------------|---------------------------------| 

0:39 

E-----------4---|-----------4---| 
B-4-2-1-------2-|-4-2-1-------4-| 
G-------3-------|-------3-------| x2 
D---------3-----|---------3-----| 
A---------------|---------------| 
E---------------|---------------| 

0:43                                            0:49 

E-------------------------------------------------|-----------| 
B------1------------------------------------------|-1-----2-4-| 
G-2--0--3-1-0-1-2-----2---1-3-1---2-1-----1-2---1-|---1-------| 
D--4--------------4-4---3-------3-----3-4-----3---|-----3-----| 
A-------------------------------------------------|-----------| 
E-------------------------------------------------|-----------| 

                         0:51 

E-------------------------|-----------4---------------------------| 
B-----2-4-----2-4-----2-4-|-2-1-----4---2-4---2-4-----2-4-------1-| 
G-2-------2-------2-------|-----1-----------3-------3-----3---1---| 
D---3-------3-------3-----|-------3---------------3---------3-----| 
A-------------------------|---------------------------------------| 
E-------------------------|---------------------------------------| 

0:55 

E---------------------------------------------------------------------| 
B------------------------1---------1--------------------1---------1-2-| 
G-2---0-0-0-3-0-----1--0---3-1---0--2-----2-----3-1-------3-2-1-2-----| 
D---3-----------3-1--3---------3------4-3---4-3-----3-4---------------| 
A---------------------------------------------------------------------| 
E---------------------------------------------------------------------| 

1:01 

E-------------------0---------0-------1-------1-------0-1----2-------| 
B-----3-0---1-4-2-----3-0-1-4---2-0-4---4-1-2---2-1-2----2-0---3-3-4-| 
G-3-2-----0-------2--------------------------------------------------| 
D--------------------------------------------------------------------| 
A--------------------------------------------------------------------| 
E--------------------------------------------------------------------| 

1:07 

E-5-4-1-0-2-3-----3-0-----0---------------------4-------------| 
B-------------4-1-----3-2---4-1-------------1-4---------------| 
G-------------------------------3-------0-3-------3---2-1-----| 
D---------------------------------3-----------------3-----3-4-| 
A-----------------------------------1-3-----------------------| 
E-------------------------------------------------------------| 

1:12 

E-----------4-| 
B-2-1-----4---| 
G-----3-------| x14 
D-------3-----| 
A-------------| 
E-------------| 

1:23 

E---------------------------| 
B---------------------11-13-| 
G---------10----13-10-------| 
D---10-11----11-------------| 
A-8-------------------------| 
E---------------------------|  
less
plus
Add to Songbook Print Version How to play lesson Submit videolesson
Click the best TAGS for this song:
None of them
Contributor: grastmay Correct

If you can not find the chords or tabs you want, look at our partner E-chords. If you are a premium member, you have total access to our video lessons.

If you find a wrong Bad To Me from Chris Potter, click the correct button above.

login/signup
my songbooks
my recent views
my submits