Chris Rea

Road to Hell bass

Chris Rea

Album:Best of Chris Rea

Year:1995

tools Ultimate Tabs

Start AutoScroll Font Size Down Font Size Up

Find us on Facebook

chords tabs
bass
ukulele keyboards
drums
flute
harmonica
guitar pro video
Ultimate-Tabs

Road to Hell

Author's note : Hi fellow bass players, I am back on ultimate Guitar for more bass tabs 
to come so to please rate that TAB from Chris REA's best album "Road to Hell".. hoping 
you will use it !!
Any suggestion : leave me a message and see more of my tabs under Bruno Frenchy (Almost 
38000 musicians worldwide are using my 37 tabs, so far)...
So enjoy !!

Intro
  Opening Riff / Drums / Guitar  bass 00:04
G-|--------------------|---------------------|
D-|--------------------|---------------------|
A-|--------------------|---------------------|
E-|-3-/-5------3-/-5---|-3-/-5-----3-/-5-----|

OPENING PATTERN - 00:16
G-|--------------------|---------------------|
D-|--------------------|---------------------|
A-|--------------------|---3-5-55----3-5-55--|
E-|-0-3-5-55--0-3-5-55-|-5---------5---------|
                                                 X2
G-|--------------------|---------------------|
D-|--------------------|---------------------|
A-|-7-5-------5--------|---------------------|
E-|-----8-88----8-7-77-|-8-7-5-55--0-3-5-55--|


VERSE 1 - 00:45
G-|--------------------|---------------------|
D-|--------------------|---------------------|
A-|--------------------|---3-5-55----3-5-55--|
E-|-0-3-5-55--0-3-5-55-|-5---------5---------|
   Well Im standing by the river...
                                                 X2
G-|--------------------|---------------------|
D-|--------------------|---------------------|
A-|-7-5----------------|---------------------|
E-|-----8-88----8-7-77-|-8-7-5-55--0-3-5-55--|


VERSE 2 - 01:14
G-|--------------------|---------------------|
D-|--------------------|-----5-55-------55---|
A-|-----3-33------3-33-|-3-5-------3-5-------|
E-|-3-5-------3-5------|---------------------|
   And the perverted fear of violence...

G-|-2------------------|---------------------|
D-|---5-3-33------3-33-|-5-3-2-22--232--2----|
A-|-----------3-5------|------------------5--|
E-|--------------------|---------------------|


G-|--------------------|---------------------|
D-|--------------------|---------------------|
A-|--------------------|---3-5-55----3-5-55--|
E-|-0-3-5-55--0-3-5-55-|-5---------5---------|
   They say no technological breakdown...

G-|--------------------|---------------------|
D-|--------------------|---------------------|
A-|-7-5-------5--------|---------------------|
E-|-----8-88----8-7-77-|-8-7-5-55--0-3-5-55--|


BRIDGE - 01:44
G-|--------------------|---------------------|
D-|--------------------|---------------------|
A-|--------------------|---3-5-55----3-5-55--|
E-|-0-3-5-55--0-3-5-55-|-5---------5---------|

G-|--------------------|---------------------|
D-|--------------------|---------------------|
A-|-5-3----------------|-----3-33--0-3-2-22--|
E-|-----5-55--0-1-3-33-|-3-5-----------------|


G-|--------------------|---------------------|
D-|--------------------|---------------------|
A-|--------------------|---3-5-55----3-5-55--|
E-|-0-3-5-55--0-3-5-55-|-5---------5---------|

G-|--------------------|---------------------|
D-|--------------------|---------------------|
A-|-7-5----------------|---------------------|
E-|-----8-88----8-7-77-|-8-7-5-55--0-3-5-55--|


VERSE 3 - 02:10
G-|--------------------|---------------------|
D-|--------------------|-----5-55-------55---|
A-|-----3-33------3-33-|-3-5-------3-5-------|
E-|-3-5-------3-5------|---------------------|
   And all the roads jam up with credit...

G-|-2------------------|---------------------|
D-|---5-3-33------3-33-|-5-3-2-22--232--2----|
A-|-----------3-5------|------------------5--|
E-|--------------------|---------------------|

G-|--------------------|---------------------|
D-|--------------------|---------------------|
A-|--------------------|---3-5-55----3-5-55--|
E-|-----5-55--0-3-5-55-|-5---------5---------|
   Oh, look at world take a good look...
G-|--------------------|---------------------|
D-|--------------------|---------------------|
A-|-7-5-------5--------|---------------------|
E-|-----8-88----8-7-77-|-8-7-5-55--0-3-5-55--|


VERSE 4 - 02:39
G-|--------------------|---------------------|
D-|--------------------|---------------------|
A-|--------------------|---3-5-55----3-5-55--|
E-|-0-3-5-55--0-3-5-55-|-5---------5---------|
   This aint no upwardly mobile freeway...

G-|--------------------|---------------------|
D-|--------------------|---------------------|
A-|-7-5----------------|---------------------|
E-|-----88-8-88-8-88-8-|-8-7-5-55--0-3-5-55--|
  Oh no, this is the road...this is the road...

G-|--------------------|---------------------|
D-|--------------------|---------------------|
A-|--------------------|---3-5-55----3-5-55--|
E-|-0-3-5-55--0-3-5-55-|-5---------5---------|

G-|--------------------|---------------------|
D-|--------------------|---------------------|
A-|-7-5----------------|---------------------|
E-|-----8-88----8-7-77-|-8-7-5-55--0-3-5-55--|


Instrumental ending  03:15
G-|--------------------|---------------------|
D-|--------------------|---------------------|
A-|--------------------|---3-5-55----3-5-55--|
E-|-0-3-5-55--0-3-5-55-|-5---------5---------|
                                                XX Repeat till fading
G-|--------------------|---------------------|
D-|--------------------|---------------------|
A-|-7-5----------------|---------------------|
E-|-----8-88----8-7-77-|-8-7-5-55--0-3-5-55--|


Ending : 04:30
less
plus
Add to Songbook Print Version How to play lesson Submit videolesson
Click the best TAGS for this song:
None of them
Contributor: kvgzmmjj Correct

If you can not find the chords or tabs you want, look at our partner E-chords. If you are a premium member, you have total access to our video lessons.

If you find a wrong Bad To Me from Chris Rea, click the correct button above.

login/signup
my songbooks
my recent views
my submits