Christina Perri

A Thousand Years keyboard

Christina Perri

tools Ultimate Tabs

Start AutoScroll Font Size Down Font Size Up

Find us on Facebook

chords tabs
bass
ukulele
keyboards
drums
flute
harmonica
guitar pro video
Ultimate-Tabs

A Thousand Years

Capo 3 

  Intro  




Verse 1 : 
 Heart beats fast, colors and 
 G 
  
Promises, How to be 

 G/B 
B | -------3--------3--------3--------3----------------------| 
G | ---0-----0---0-----0--0-----0---0---0--------------------| 
D | ---------------------------------------------------------| 
A | ---------------------------------------------------------| 
E | -0---0--0--0--0---0--0--0--0--0--0-0---------------------| 
 Brave, How do I 

 D/F#                      G 
 E | ---------------         E |  ------------------| 
 B | -------3-------         B |  -----------3------| 
 G | ---2-----------         G |  ------0--------0--| 
 D | ---------------         D |  ------------------| 
 A | ---------------         A |  -------------0----| 
 E |-2---2---------          E |  ---3-----3--------| 
 Love when                 I'm afraid 

 Cadd9 

 To fall, but watching you 

 G 
 Stand alone, All of my 

 G/B 
 Doubts suddenly 

 D/F#                      G 
 Goes a-                   way somehow 

PRE-CHORUS : Am Em D(once) One step closer CHORUS : G D/F# I have died everyday waiting for you Em7 D/F# Darling don't be afraid I have loved you Cadd9 For a thousand years G D/F# Cadd9 I'll love you for a thousand more.. VERSE 2 : (Do the same plucking with verse 1) Cadd9 Time stands still G Beauty in all she is G/B I will be brave D/F# G Cadd9 I will not let anything take away G What’s standing infront of me G/B Every breath D/F# G Every hour has come to this PRE-CHORUS : (Strumming) Am Em D One step closer CHORUS : G D/F# I have died everyday waiting for you Em7 D/F# Darling don't be afraid I have loved you Cadd9 For a thousand years G D/F# I'll love you for a thousand more G And all along I believe D/F# I have found you Em7 Time has brought Your heart to me D/F# Cadd9 I have loved you for a thousand years G D/F# I’ll love you for a thousand more INSTRUMENTAL : G , D/F# , Em7 , D/F# , Cadd9 , G , D/F# Am Em One step D Clo- -ser
CHORUS : G(once) D/F#(once) I have died everyday waiting for you Em7(once) D/F#(once) Darling don't be afraid I have loved you Cadd9(once) For a thousand years G(once) D/F# I'll love you for a thousand more G And all along I believe D/F# I have found you Em7 Time has brought Your heart to me D/F# Cadd9 I have loved you for a thousand years G D/F# I’ll love you for a thousand more..
 OUTRO : 

 Cadd9 

 G/B 

  Cadd9 

 G/B 

D , Cadd9
less
plus
Add to Songbook Print Version How to play lesson Submit videolesson
Click the best TAGS for this song:
None of them
Contributor: timtSONG Correct

If you can not find the chords or tabs you want, look at our partner E-chords. If you are a premium member, you have total access to our video lessons.

If you find a wrong Bad To Me from Christina Perri, click the correct button above.

login/signup
my songbooks
my recent views
my submits