tools Ultimate Tabs

Start AutoScroll Font Size Down Font Size Up

Find us on Facebook

chords
tabs
bass
ukulele keyboards
drums
flute
harmonica
guitar pro
video
Ultimate-Tabs

Girassol

Intro e Estrofes... 
-------------------------------------------- 
-------------------------------------------- 
--55--5---77--7---99--9----7--77------------ 
----55------77------99----------775--------- 

-------------------------------------------- 
-------------------------------------------- 
--55--5---77--7---99--9-----12--12--12--12-- 
----55------77------99------------12--12---- 


Refrão 
---------------------------------------------------------------------------------- 
-------------------------------------55-55-55-55---------------------------------- 
-----------------------33-33-33-33--5--5--5--5----55-55-55-55--5------------------ 
-0-55-0-55-0-55-0-55--3--3--3--3-----------------5--5--5--5-----55-0-55-0-55-0-55-... 
less
plus
Add to Songbook Print Version How to play lesson Submit videolesson
Click the best TAGS for this song:
None of them
Contributor: ..::jjbb Correct

If you can not find the chords or tabs you want, look at our partner E-chords. If you are a premium member, you have total access to our video lessons.

If you find a wrong Bad To Me from Cidade Negra, click the correct button above.

login/signup
my songbooks
my recent views
my submits