Coldplay

A rush of blood to the head tab

Coldplay

Album:A Rush of Blood to the Head

Year:2002

tools Ultimate Tabs

Start AutoScroll Font Size Down Font Size Up

Find us on Facebook

chords
tabs
bass ukulele keyboards
drums
flute
harmonica
guitar pro
video
Ultimate-Tabs

A rush of blood to the head

Am	  C	Em    F	  Fsus2   D     Bb   F(bar) O(open) 
e---0-----0-----0-----1-----0-----2-----1-----1-----0-- 
B---1-----1-----0-----1-----1-----3-----3-----1-----0-- 
G---2-----0-----0-----2-----0-----2-----3-----2-----0-- 
D---2-----2-----2-----3-----3-----0-----3-----3-----0-- 
A---0-----3-----2-----x-----x-----x-----1-----3-----0-- 
E---0-----x-----0-----x-----x-----x-----x-----1-----0-- 
  Am	   	     

esto es al final: 



   Am 
e-0-0-0-0-0-0-0-0-0--0-0-0-0-0-0-0-0-0-- 
B-1-1-1-1-1-1/3-3-3--1-1-1-1-1-1/3-3-3-- 
G-2-2-2-2-2-2/4-4-4--2-2-2-2-2-2/4-4-4-- 
D-2-2-2-2-2-2/4-4-4--2-2-2-2-2-2/4-4-4-- 
A-0-0-0-0-0-0-0-0-0--0-0-0-0-0-0-0-0-0-- 
E-0-0-0-0-0-0-0-0-0--0-0-0-0-0-0-0-0-0-- 

  Am	   	       Am		Am  
e-0-0-0-0-0-0-0-0-0--0-0-0-0-0-0-0-0-0--0-- 
B-1-1-1-1-1-1/3-3-3--1-1-1-1-1-1/3-3-3--1-- 
G-2-2-2-2-2-2/4-4-4--2-2-2-2-2-2/4-4-4--2-- 
D-2-2-2-2-2-2/4-4-4--2-2-2-2-2-2/4-4-4--2-- 
A-0-0-0-0-0-0-0-0-0--0-0-0-0-0-0-0-0-0--0-- 
E-0-0-0-0-0-0-0-0-0--0-0-0-0-0-0-0-0-0--0-- 
less
plus
Add to Songbook Print Version How to play lesson Submit videolesson
Click the best TAGS for this song:
None of them
Contributor: samusumm Correct

If you can not find the chords or tabs you want, look at our partner E-chords. If you are a premium member, you have total access to our video lessons.

If you find a wrong Bad To Me from Coldplay, click the correct button above.

login/signup
my songbooks
my recent views
my submits