Coldplay

Up And Up tab

Coldplay

tools Ultimate Tabs

Start AutoScroll Font Size Down Font Size Up

Find us on Facebook

chords
tabs
bass
ukulele
keyboards
drums
flute
harmonica
guitar pro
video
Ultimate-Tabs

Up And Up

Up&Up - Coldplay
(I don't know why I couldn't put the & sign in the title of the tab)

This is all based on a live version of this song. 


Intro: Jonny uses a delay pedal, it works like a wah-wah, and a slide

e|-------------------|    
B|12----7----5----5s4|    
G|-------------------| x3 
D|-------------------|    
A|-------------------|    
E|-------------------|    

Chorus: The D and G string notes are in brackets because you have the slide in your ring finger.

  (G)        (D)        (F)        (C)
e|-----------------------------------------|
B|-12---------10---------10---------8------|
G|(12)--x16--(11)--x16--(10)--x16--(9)--x16| x2
D|(12)-------(12)-------(10)-------(10)----|
A|-----------------------------------------|
E|-----------------------------------------|

e|----|
B|8--8|
G|----|
D|----| This loops throughout the choruses, it is played using a slide
A|----|
E|----|


Verse 2: The same effects as the intro

e|-------------------|    e|-------------------------|  e|------------------------|
B|12----7----5----5s4|    B|12--x8--10--x8--8--x14--5|  B|12--x8--10--x8--8----5s4|
G|-------------------| x3 G|-------------------------|  G|------------------------|
D|-------------------|    D|-------------------------|  D|------------------------|
A|-------------------|    A|-------------------------|  A|------------------------|
E|-------------------|    E|-------------------------|  E|------------------------|

Chorus: 

   (G)        (D)        (F)        (C)
e|-----------------------------------------|
B|-12---------10---------10---------8------|
G|(12)--x16--(11)--x16--(10)--x16--(9)--x16| x2
D|(12)-------(12)-------(10)-------(10)----|
A|-----------------------------------------|
E|-----------------------------------------|

Then there is an interlude where the guitar doesn't play until the end:

Fading in and tremolo picked

e|--12--|
B|--12--|
G|--12--|
D|------|
A|------|
E|------|

Solo (with slight delay and without the slide)

e|-------------------------------------------------------------------------|
B|---------------------12--12b13-12--------------------------12--12b13-----|
G|---------------12---------------14-12------------------12-----------14-12|
D|---------12-14-----------------------14-----------12-14------------------|
A|10-12s14----------------------------------10-12s14-----------------------|
E|-------------------------------------------------------------------------|

e|-------------------------------------------------------------------------|
B|------------------12--12b13---------13-13-12-10--10----------------------|
G|--------------12-----------14-12---------------12--9-12---12-10-9-7------|
D|---------12-14------------------------------------------------------10-10|
A|-10-12s14----------------------------------------------------------------|
E|-------------------------------------------------------------------------|

e|-------------------------------------------------------------------------|
B|---------------------12--12b13-12--------------------------12--12b13-----|
G|---------------12---------------14-12------------------12-----------14-12|
D|---------12-14-----------------------14-----------12-14------------------|
A|10-12s14----------------------------------10-12s14-----------------------|
E|-------------------------------------------------------------------------|

e|-----------------------------------------------------------------------------------|
B|------------------12--12b13--------15--12-13-15--12-13-15--15-13-12----------------|
G|--------------12-----------14-12-------------------------------------14-12-12-14-12|
D|---------12-14---------------------------------------------------------------------|
A|-10-12s14--------------------------------------------------------------------------|
E|-----------------------------------------------------------------------------------|

e|15-15-15-15-15-15-15-15-15-15-15-15-15s17--12----|
B|-----------------------------------------------15|
G|-------------------------------------------------| x2
D|-------------------------------------------------|
A|-------------------------------------------------|
E|-------------------------------------------------|

e|15-15-15-15-15-15-15-15-15-15-15-15-15s17--12--20--20-19-17--17--------------------------|
B|-----------------------------------------------------------20--17-20--20-18-17-15-17-----|
G|------------------------------------------------------------------------------------17-16|
D|-----------------------------------------------------------------------------------------|
A|-----------------------------------------------------------------------------------------|
E|-----------------------------------------------------------------------------------------|

e|15-15-15-15-15-15-15-15-15-15-15-15-15s17--12----|
B|-----------------------------------------------15|
G|-------------------------------------------------| x2
D|-------------------------------------------------|
A|-------------------------------------------------|
E|-------------------------------------------------|

e|15-15-15-15-15-15-15-15-15-15-15-15-15s17--12----13------12------------------------|
B|----------------------------------------------------12-13---12-13-15--15-13-12-----|
G|------------------------------------------------------------------------------14-12|
D|-----------------------------------------------------------------------------------|
A|-----------------------------------------------------------------------------------|
E|-----------------------------------------------------------------------------------|

Chorus: Now that you don't have the slide in your finger, you can play the G and D strings too

  (G)        (D)        (F)        (C)
e|-----------------------------------------|
B|-12---------10---------10---------8------|
G|(12)--x16--(11)--x16--(10)--x16--(9)--x16| x4
D|(12)-------(12)-------(10)-------(10)----|
A|-----------------------------------------|
E|-----------------------------------------|


Solo 2 (with slight delay and without the slide)

-----------------------------------------------------------------------|
                                                                       |
e|----------------------------------------------------------|          |
B|8s13-13-13-13-13-13-13-13-13-13-13-13-12-10-10-8-8-8-8-8-8|          |
G|----------------------------------------------------------|          |
D|----------------------------------------------------------|          |
A|----------------------------------------------------------|          |
E|----------------------------------------------------------|          |
                                                                       |
e|--------------------------------------------------------------|      |
B|8s13-13-13-13-13-13-13-13-13-13-13-13-15-8-8-8-8-8-8-8-8-8-8-8|      |
G|--------------------------------------------------------------|      x4
D|--------------------------------------------------------------|      |
A|--------------------------------------------------------------|      |
E|--------------------------------------------------------------|      |
                                                                       |
e|------------------------------------|                                |
B|10b11r10-8--8-8-8-8-10b11r10-8--8-8-|                                |
G|-------------0-0-----------------0-0|                                |
D|------------------------------------|                                |
A|------------------------------------|                                |
E|------------------------------------|                                |
                                                                       |
-----------------------------------------------------------------------|

Outro: Grab the slide again and the same delay as the intro

e|-------------------|
B|12----7----5----5s4|
G|-------------------| x2
D|-------------------|
A|-------------------|
E|-------------------|

************************************


| b   Bend
| s   Slide
| r   Release


************************************


less
plus
Add to Songbook Print Version How to play lesson Submit videolesson
Click the best TAGS for this song:
None of them
Contributor: delijazz Correct

If you can not find the chords or tabs you want, look at our partner E-chords. If you are a premium member, you have total access to our video lessons.

If you find a wrong Bad To Me from Coldplay, click the correct button above.

login/signup
my songbooks
my recent views
my submits