tools Ultimate Tabs

Start AutoScroll Font Size Down Font Size Up

Find us on Facebook

chords
tabs
bass
ukulele keyboards
drums
flute
harmonica
guitar pro
video
Ultimate-Tabs

Coexist

Intro 
e|------------------------------------| 
B|------------------------------------| 
G|------------------------------------| 
D|-5-5---7-7---5-5---7-7---5-5-5-5----| 
A|-----0-----0-----0-----0----0--0----| 
E|------------------------------------| 

e|------------------------------------| 
B|------------------------------------| 
G|------------------------------------| x4 
D|---2----5--5h7------8-8-8-8---------| 
A|--1----4------6-----8-8-8-8---------| 
E|-0----3--------5----6-6-6-6---------| 

e|------------------------------------| 
B|--------12--------------------------| 
G|--------12--------------------------| 
D|--------12--------------------------| 
A|------------------------------------| 
E|-00-0-------------------------------| 

Into Verse 
e|------------| 
B|------------| 
G|-10---------| 
D|-10-10-9----| 
A|-8--10-9----| 
E|----8--7----| 

Verse 
e|------------------------------------| 
B|------------------------------------| 
G|-8-9-9-9-8-9------------------------| 
D|-8-9-9-8-9-9-8-9-9-8-9-9-10-10-9----| 
A|-6-7-7-6-7-7-6-7-7-6-7-7-8--10-9----| 
E|----------------------------8--7----| 

Interlude 
e|-------------------| 
B|-------------------| 
G|-------------------| 
D|-------------------| 
A|-2-5-8-7-10-9------| 
E|-0-3-6-5-8--7------| 

Bridge 
e|------------------------------------| 
B|--------12--------------------------| 
G|--------12----------5-5h7p5h7p5h7---| 
D|--------12------5h7-----------------| 
A|------------------------------------| 
E|-00-0-------------------------------| 

e|------------------------------------| 
B|------------------------------------| 
G|----------------------------6h8p6h8-| 
D|------------------------------------| 
A|-7-7-7-7-7-7-7-7-7-8-8-8-8-8--------| 
E|-5-5-5-5-5-5-5-5-5-6-6-6-6-6--------|  
less
plus
Add to Songbook Print Version How to play lesson Submit videolesson
Click the best TAGS for this song:
None of them
Contributor: simomfor Correct

If you can not find the chords or tabs you want, look at our partner E-chords. If you are a premium member, you have total access to our video lessons.

If you find a wrong Bad To Me from Corrosion of Conformity, click the correct button above.

login/signup
my songbooks
my recent views
my submits