Crackout

Mr Rabies tab

Crackout

tools Ultimate Tabs

Start AutoScroll Font Size Down Font Size Up

Find us on Facebook

chords
tabs
bass
ukulele
keyboards
drums
flute
harmonica
guitar pro
video
Ultimate-Tabs

Mr Rabies

-------------------------------------------------------------------------------
                             MR. RABIES - Crackout
-------------------------------------------------------------------------------
Tabbed by: snowmotion
E-mail: [email protected]

Tuning: Standard

e|---------------------------------------------------------------|
B|---------------------------------------------------------------|
G|---------------------------------------------------------------|
D|---5-------2-------5-------2-------5-------2-------------------|
A|-3---3-0-0---0-3-3---3-0-0---0-3-3---3-0-0---0-----2-------3---|
E|-----------------------------------------------0-0---0-1-1---1-|

e|-----------------------------------------------------------------|
B|-----------------------------------------------------------------|
G|-----------------------------------------------------------------|
D|-----5-------2-------5-------2-------5-------2-------------------|
A|-3-3---3-0-0---0-3-3---3-0-0---0-3-3---3-0-0---0-----2-------3---|
E|-------------------------------------------------0-0---0-1-1---1-|

e|-----------------------------------------------------------------|
B|-----------------------------------------------------------------|
G|-----------------------------------------------------------------|
D|-----5-------2-------5-------2-------5-------2-------------------|
A|-3-3---3-0-0---0-3-3---3-0-0---0-3-3---3-0-0---0-----2-------3---|
E|-------------------------------------------------0-0---0-1-1---1-|

e|-----------------------------------------------------------------|
B|-----------------------------------------------------------------|
G|-----------------------------------------------------------------|
D|-----5-------2-------5-------2-------5-------2-------------------|
A|-3-3---3-0-0---0-3-3---3-0-0---0-3-3---3-0-0---0-----2-------3---|
E|-------------------------------------------------0-0---0-1-1---1-|

e|-----------------------------------------------------------------|
B|-----------------------------------------------------------------|
G|-----------------------------------------------------------------|
D|-----5-------2-------5-------2-------5-------2-------------------|
A|-3-3---3-0-0---0-3-3---3-0-0---0-3-3---3-0-0---0-----2-------3---|
E|-------------------------------------------------0-0---0-1-1---1-|

e|-------------------------------------------------|
B|-------------------------------------------------|
G|-------------------------------------------------|
D|-----5-------2-------5-------2-------5-------2---|
A|-3-3---3-0-0---0-3-3---3-0-0---0-3-3---3-0-0---0-|
E|-------------------------------------------------|

e|-------------------------------------------------------------|
B|-------------------------------------------------------------|
G|-------------------------------------------------------------|
D|-------------------------------------------------------------|
A|2-2-2-2-2-2-2-2-2-2-2-2-2-2-2-2-3-3-3-3-3-3-3-3-3-3-3-3-x0-x0|
E|0-0-0-0-0-0-0-0-0-0-0-0-0-0-0-0-1-1-1-1-1-1-1-1-1-1-1-1-x0-x0|

e|----------------------------------------------------------------------------|
B|----------------------------------------------------------------------------|
G|-5-5-5-5--------------------------------------------------------------------|
D|-5-5-5-5-15/17-17-17-6-5-5-5-15/17-17-17-6-7-7-7-15/17-17-17-6-5-5-6-5-5-6-5|
A|-3-3-3-3-------------6-5-5-5-------------6-7-7-7-------------6-5-5-6-5-5-6-5|
E|---------------------4-3-3-3-------------4-5-5-5-------------4-3-3-4-3-3-4-3|

e|---------------------------------------------------------------------------|
B|---------------------------------------------------------------------------|
G|-5-5-5-5-----------------------------------------------------------------5-|
D|-5-5-5-5-15/17-17-17-6-5-5-5-15/17-17-17-6-7-7-7-15/17-17-17-6-5-5-6-5-5---|
A|-3-3-3-3-------------6-5-5-5-------------6-7-7-7-------------6-5-5-6-5-5---|
E|---------------------4-3-3-3-------------4-5-5-5-------------4-3-3-4-3-3---|

e|---------------------------------------------------------------------------|
B|---------------------------------------------------------------------------|
G|-----------------------5/10-------------------10/4-----------------------5-|
D|---------------------------------------------------------------------------|
A|---------------------------------------------------------------------------|
E|---------------------------------------------------------------------------|

e|---------------------------------------------------------------------------|
B|---------------------------------------------------------------------------|
G|---------------------------------------------------------------------------|
D|---------------------------------------------------------------------------|
A|---------------------------------------------------------------------------|
E|---------------------------------------------------------------------------|

e|-----------------------------------------------------------------|
B|-----------------------------------------------------------------|
G|-----------------------------------------------------------------|
D|-----5-------2-------5-------2-------5-------2---2-2-2-2-2-3-3-3-|
A|-3-3---3-0-0---0-3-3---3-0-0---0-3-3---3-0-0---0-2-2-2-2-2-3-3-3-|
E|-------------------------------------------------0-0-0-0-0-1-1-1-|

e|-----------------------------------------------------------------|
B|-----------------------------------------------------------------|
G|-----------------------------------------------------------------|
D|-----5-------2-------5-------2-------5-------2-------------------|
A|-3-3---3-0-0---0-3-3---3-0-0---0-3-3---3-0-0---0-----2-------3---|
E|-------------------------------------------------0-0---0-1-1---1-|

e|-----------------------------------------------------------------|
B|-----------------------------------------------------------------|
G|-----------------------------------------------------------------|
D|-----5-------2-------5-------2-------5-------2-------------------|
A|-3-3---3-0-0---0-3-3---3-0-0---0-3-3---3-0-0---0-----2-------3---|
E|-------------------------------------------------0-0---0-1-1---1-|

e|------------------------------------------------|
B|------------------------------------------------|
G|------------------------------------------------|
D|-----5-------2-------5-------2-------5-------2--|
A|-3-3---3-0-0---0-3-3---3-0-0---0-3-3---3-0-0---0|
E|------------------------------------------------|

e|-------------------------------------------------------------|
B|-------------------------------------------------------------|
G|-------------------------------------------------------------|
D|-------------------------------------------------------------|
A|2-2-2-2-2-2-2-2-2-2-2-2-2-2-2-2-3-3-3-3-3-3-3-3-3-3-3-3-x0-x0|
E|0-0-0-0-0-0-0-0-0-0-0-0-0-0-0-0-1-1-1-1-1-1-1-1-1-1-1-1-x0-x0|

e|----------------------------------------------------------------------------|
B|----------------------------------------------------------------------------|
G|-5-5-5-5--------------------------------------------------------------------|
D|-5-5-5-5-15/17-17-17-6-5-5-5-15/17-17-17-6-7-7-7-15/17-17-17-6-5-5-6-5-5-6-5|
A|-3-3-3-3-------------6-5-5-5-------------6-7-7-7-------------6-5-5-6-5-5-6-5|
E|---------------------4-3-3-3-------------4-5-5-5-------------4-3-3-4-3-3-4-3|

e|----------------------------------------------------------------------------|
B|----------------------------------------------------------------------------|
G|-5-5-5-5--------------------------------------------------------------------|
D|-5-5-5-5-15/17-17-17-6-5-5-5-15/17-17-17-6-7-7-7-15/17-17-17-6-5-5-6-5-5-6-5|
A|-3-3-3-3-------------6-5-5-5-------------6-7-7-7-------------6-5-5-6-5-5-6-5|
E|---------------------4-3-3-3-------------4-5-5-5-------------4-3-3-4-3-3-4-3|


e|-------------------------------------------------------------------------|
B|-------------------------------------------------------------------------|
G|-------------------------------------------------------------------------|
D|-------------------------------------------------------------------------| 
A|-2-2-2-2-2-2-2-2-3-3-3-3-3-3-3-3-10-10-10-10-10-10-10-10-5-5-5-5-5-5-5-5-|
E|-0-0-0-0-0-0-0-0-1-1-1-1-1-1-1-1-8--8--8--8--8--8--8--8--3-3-3-3-3-3-3-3-|

e|-------------------------------------------------------------------------|
B|-------------------------------------------------------------------------|
G|-------------------------------------------------------------------------|
D|-------------------------------------------------------------------------|
A|-2-2-2-2-2-2-2-2-3-3-3-3-3-3-3-3-10-10-10-10-10-10-10-10-5-5-5-5-5-5-5-5-|
E|-0-0-0-0-0-0-0-0-1-1-1-1-1-1-1-1-8--8--8--8--8--8--8--8--3-3-3-3-3-3-3-3-|

e|-------------------------------------------------------------------------|
B|-------------------------------------------------------------------------|
G|-------------------------------------------------------------------------|
D|-2-2-2-2-2-2-2-2-3-3-3-3-3-3-3-3-10-10-10-10-10-10-10-10-5-5-5-5-5-5-5-5-|
A|-2-2-2-2-2-2-2-2-3-3-3-3-3-3-3-3-10-10-10-10-10-10-10-10-5-5-5-5-5-5-5-5-|
E|-0-0-0-0-0-0-0-0-1-1-1-1-1-1-1-1-8--8--8--8--8--8--8--8--3-3-3-3-3-3-3-3-|

e|-------------------------------------------------------------------------|
B|-------------------------------------------------------------------------|
G|-------------------------------------------------------------------------|
D|-2-2-2-2-2-2-2-2-3-3-3-3-3-3-3-3-10-10-10-10-10-10-10-10-5-5-5-5-5-5-5-5-|
A|-2-2-2-2-2-2-2-2-3-3-3-3-3-3-3-3-10-10-10-10-10-10-10-10-5-5-5-5-5-5-5-5-|
E|-0-0-0-0-0-0-0-0-1-1-1-1-1-1-1-1-8--8--8--8--8--8--8--8--3-3-3-3-3-3-3-3-|

e|----------------------------------------------------------------------------|
B|----------------------------------------------------------------------------|
G|-5-5-5-5--------------------------------------------------------------------|
D|-5-5-5-5-15/17-17-17-6-5-5-5-15/17-17-17-6-7-7-7-15/17-17-17-6-5-5-6-5-5-6-5|
A|-3-3-3-3-------------6-5-5-5-------------6-7-7-7-------------6-5-5-6-5-5-6-5|
E|---------------------4-3-3-3-------------4-5-5-5-------------4-3-3-4-3-3-4-3|


e|----------------------------------------------------------------------------|
B|----------------------------------------------------------------------------|
G|-5-5-5-5--------------------------------------------------------------------|
D|-5-5-5-5-15/17-17-17-6-5-5-5-15/17-17-17-6-7-7-7-15/17-17-17-6-5-5-6-5-5-6-5|
A|-3-3-3-3-------------6-5-5-5-------------6-7-7-7-------------6-5-5-6-5-5-6-5|
E|---------------------4-3-3-3-------------4-5-5-5-------------4-3-3-4-3-3-4-3|

e|-------------------------------------------------------------------------|
B|-------------------------------------------------------------------------|
G|-------------------------------------------------------------------------|
D|-2-2-2-2-2-2-2-2-3-3-3-3-3-3-3-3-10-10-10-10-10-10-10-10-5-5-5-5-5-5-5-5-|
A|-2-2-2-2-2-2-2-2-3-3-3-3-3-3-3-3-10-10-10-10-10-10-10-10-5-5-5-5-5-5-5-5-|
E|-0-0-0-0-0-0-0-0-1-1-1-1-1-1-1-1-8--8--8--8--8--8--8--8--3-3-3-3-3-3-3-3-|

e|-------------------------------------------------------------------------|
B|-------------------------------------------------------------------------|
G|-------------------------------------------------------------------------|
D|-2-2-2-2-2-2-2-2-3-3-3-3-3-3-3-3-10-10-10-10-10-10-10-10-5-5-5-5-5-5-5-5-|
A|-2-2-2-2-2-2-2-2-3-3-3-3-3-3-3-3-10-10-10-10-10-10-10-10-5-5-5-5-5-5-5-5-|
E|-0-0-0-0-0-0-0-0-1-1-1-1-1-1-1-1-8--8--8--8--8--8--8--8--3-3-3-3-3-3-3-3-|

e|-------------------------------------------------------------------------|
B|-------------------------------------------------------------------------|
G|-------------------------------------------------------------------------|
D|-2-2-2-2-2-2-2-2-3-3-3-3-3-3-3-3-10-10-10-10-10-10-10-10-5-5-5-5-5-5-5-5-|
A|-2-2-2-2-2-2-2-2-3-3-3-3-3-3-3-3-10-10-10-10-10-10-10-10-5-5-5-5-5-5-5-5-|
E|-0-0-0-0-0-0-0-0-1-1-1-1-1-1-1-1-8--8--8--8--8--8--8--8--3-3-3-3-3-3-3-3-|

e|-------------------------------------------------------------------------|
B|-------------------------------------------------------------------------|
G|-------------------------------------------------------------------------|
D|-2-2-2-2-2-2-2-2-3-3-3-3-3-3-3-3-10-10-10-10-10-10-10-10-5-5-5-5-5-5-5-5-|
A|-2-2-2-2-2-2-2-2-3-3-3-3-3-3-3-3-10-10-10-10-10-10-10-10-5-5-5-5-5-5-5-5-|
E|-0-0-0-0-0-0-0-0-1-1-1-1-1-1-1-1-8--8--8--8--8--8--8--8--3-3-3-3-3-3-3-3-|



e|-----------------------------------|
B|-----------------------------------|
G|-----------------------------------|
D|-----------------------------------|
A|-8-7-5-3---8-7-8---8-7-5-3---8-7-8-|
E|-----------------------------------|


************************************

| /   slide up
| \   slide down
| h   hammer-on
| p   pull-off
| ~   vibrato
| +   harmonic
| *   let ring
| x   Mute note
| b   Bend
| pb  Pre-bend
| br  Bend release
| pbr Pre-bend release
| brb Bend release bend

************************************
less
plus
Add to Songbook Print Version How to play lesson Submit videolesson
Click the best TAGS for this song:
None of them
Contributor: viggiren Correct

If you can not find the chords or tabs you want, look at our partner E-chords. If you are a premium member, you have total access to our video lessons.

If you find a wrong Bad To Me from Crackout, click the correct button above.

login/signup
my songbooks
my recent views
my submits