tools Ultimate Tabs

Start AutoScroll Font Size Down Font Size Up

Find us on Facebook

chords tabs
bass
ukulele keyboards
drums
flute
harmonica
guitar pro
video
Ultimate-Tabs

Susie Q

part 1)              Oh, ...   5x                          
G---||---------------------9-----7-------------||
D---||*-----------------------9-----9--7------*||
A---||*--7--7--------5--7-----------------10--*||
E---||---------7--7----------------------------||
                                                                           
(part 2)  baby I love you, Susie Q                                                 
G---------------------------------------|
D---7--7--------7--5--0--5/9--7---------|
A---------7--7-------------------10--9--|
E---------------------------------------|
                                                                          
      (part 1)                               5x                          
G---||---------------------9-----7-------------||
D---||*-----------------------9-----9--7------*||
A---||*--7--7--------5--7-----------------10--*||            
E---||---------7--7----------------------------||
                                                                           
 (variation of part 1)                                        
G---------------------9-----7-----7--9--|
D------------------------9-----9--------|
A---7--7--------5--7--------------------|
E---------7--7--------------------------|
                                                                          
 (another variation of part 1)                                                                         
G------------------------------------|
D------------------------------------|
A---7--7--------5--7-----------5--7--|
E---------7--7--------4--5--7--------|
less
plus
Add to Songbook Print Version How to play lesson Submit videolesson
Click the best TAGS for this song:
None of them
Contributor: Donymelv Correct

If you can not find the chords or tabs you want, look at our partner E-chords. If you are a premium member, you have total access to our video lessons.

If you find a wrong Bad To Me from Creedence Clearwater Revival, click the correct button above.

login/signup
my songbooks
my recent views
my submits