Csi

Inquieto tab

Csi

tools Ultimate Tabs

Start AutoScroll Font Size Down Font Size Up

Find us on Facebook

chords
tabs
bass
ukulele
keyboards
drums
flute
harmonica
guitar pro
video
Ultimate-Tabs

Inquieto

Consorzio Suonatori Indipendenti - Inquieto (live acoustic)


Intro:

 B   F#  B   F#   G6 Fmaj7/5  G6 Fmaj7/5

-7---2---7---2----0---0-------0---0------------|
-7---2---7---2----0---0-------0---0------------|
-8---3---8---3----4---2-------4---2------------|
-9---4---9---4----5---3-------5---3------------|
-9---4---9---4----5---3-------5---3------------|
-7---2---7---2----3---1-------3---1------------|


Verse:

-------------------------------------------------------|
--------3--3----------1--1----------0--0--------0--0---|
-------0--0----------0--0----------0--0--------0--0----|
-5-5--5--5-----3-3--3--3-----2-2--2--2----2-2-2--2-----|
-------------------------------------------------------|
-------------------------------------------------------|

Solo on Verse:

---5-6-8--------------------|
-5--------------------------|

Chorus:

 C /7+  C    /7+   Am    G


-0-----------------0-------------------|
-1-0-------1-0-----1-0-------0---------|
-0--0-----0---0----2--2-----0-0--------|
-2---2---2---------2---2---0-----------|
-3----3-3----------0----0-2------------|
-------------------------3-------------|

Solo on Chorus:

-----5-6-8--------------------|
-5-5--------------------------|


End:


Fmaj7 Am7 G


____________________________

[email protected]
less
plus
Add to Songbook Print Version How to play lesson Submit videolesson
Click the best TAGS for this song:
None of them
Contributor: isidtony Correct

If you can not find the chords or tabs you want, look at our partner E-chords. If you are a premium member, you have total access to our video lessons.

If you find a wrong Bad To Me from Csi, click the correct button above.

login/signup
my songbooks
my recent views
my submits