S Cueshe

Hump ahead tab

Cueshe

tools Ultimate Tabs

Start AutoScroll Font Size Down Font Size Up

Find us on Facebook

chords
tabs
bass
ukulele keyboards
drums
flute
harmonica
guitar pro
video
Ultimate-Tabs

Hump ahead

Band:Cueshe
Song Title:Hump ahead
Tabber:Alchester Roa([email protected])

Hi...im Al from iligan city!!! this is my first time to tab a song,so i hope you guyz
like it!!!handog ko 2 sa mga kabanda ko at sa lahat mga skulmyts ko sa IMCC..and most
of all sa mga cueshe fanantic over there..this is a really nice song!!!


Intro/Main Riff/Verse(parang piano pro makuha din sa gitara)
Guitar(clean)
     G          Am         Bm         C
 e|------------------------------------------------------|
 B|------------------------------------------------------|
 G|--12---------14---------16---------17-----------------|
 D|---x-(9x)-----x-(9x)-----x-(9x)-----x-(6x)------------| 
 A|--10---------12---------14---------15-----------------|
 E|------------------------------------------------------| 
 
Chorus:(strum as desired or listen to the song for the strumming patterns)
Guitars with Distortion
      G          D         Em          C
 e|------------------------------------------------------|
 B|------------------------------------------------------|
 G|--------------7----------9-----------5----------------|
 D|---5----------7----------9-----------5----------------| 
 A|---5----------5----------7-----------3----------------|
 E|---3--------------------------------------------------| 

repeat intro with a lead/piano part but hindi ko gaano nakuha try nyo nalng to:
     G          Am         Bm         C
 e|------------------------------------------------------|
 B|--------------15----------15--------------------------|
 G|-----12-14-12----12-14-12----12-14~-------------------|
 D|------------------------------------------------------| 
 A|------------------------------------------------------|
 E|------------------------------------------------------| 

Verse 2(do intro chord patterns/tab patterns)
repeat chorus
Interlude:Guitars with Distortion
      G         Am         Bm          C
 e|------------------------------------------------------|
 B|------------------------------------------------------|
 G|-------------------------4----------5-----------------|
 D|---5----------7----------4----------5-----------------| 
 A|---5----------7----------2----------3-----------------|
 E|---3----------5---------------------------------------| 

Verse 3(do intro chord patterns/tab patterns)
Repeat Chorus untill the song ends...

Guitar 2 do this chords:
Inro and Verse:
      G       Am        Bm         C
 e|---3---------------------------------------------------|
 B|---3--------1------------------------------------------|
 G|------------2---------4---------5----------------------|
 D|------------2---------4---------5----------------------| 
 A|---2------------------2---------3----------------------|
 E|---3---------------------------------------------------| 

chorus:
      G        D       Em         C
 e|---3--------2--------3---------3-----------------------|
 B|---3--------3--------3---------3-----------------------|
 G|------------2------------------------------------------|
 D|---------------------2---------2-----------------------| 
 A|---2-----------------2---------3-----------------------|
 E|---3---------------------------------------------------|

Interlude:

     G       Am        Bm         C
 e|---3---------------------------------------------------|
 B|---3--------1------------------------------------------|
 G|------------2---------4---------5----------------------|
 D|------------2---------4---------5----------------------| 
 A|---2------------------2---------3----------------------|
 E|---3---------------------------------------------------| 
less
plus
Add to Songbook Print Version How to play lesson Submit videolesson
Click the best TAGS for this song:
None of them
Contributor: Rokiosmo Correct

If you can not find the chords or tabs you want, look at our partner E-chords. If you are a premium member, you have total access to our video lessons.

If you find a wrong Bad To Me from Cueshe, click the correct button above.

login/signup
my songbooks
my recent views
my submits