S Cueshe

Sky (ver.2) tab

Cueshe

tools Ultimate Tabs

Start AutoScroll Font Size Down Font Size Up

Find us on Facebook

chords
tabs
bass
ukulele
keyboards
drums
flute
harmonica
guitar pro
video
Ultimate-Tabs

Sky (ver.2)

GTR I:Lead Guitar 
GTR II:Rhythm Guitar 
 
Intro:GTR I & II or GTR I only 
Effect:Distortion/Overdrive 
e|------------------------------------| 
B|------------------------------------| 
G|-9-11-13--14-13-11-13--6-4---6-4----| 
D|---------------------------7-----7--| 2x 
A|-7-9--11--12-11-9--11--4-2---4-2----| 
E|---------------------------5-----5--| 
 
Verse 1:GTR I or II only 
Effect:Tremolo/Clean 
e|-0--0----0--0----| 
B|-0---0---0---0---| 
G|-9-------6-------| 4x 
D|-9-------7-------| 
A|-7-------7-------| 
E|---------5-------| 
 
Repeat Intro:GTR I & II or GTR I only 
Effect:Distortion/Overdrive 
e|-------------------------------------| 
B|-------------------------------------| 
G|-9-11-13---14-13-11-13--6-4---6-4----| 
D|----------------------------7-----7--| Once only 
A|-7-9-11----12-11-9--11--4-2---4-2----| 
E|----------------------------5-----5--| 
 
Verse 2:GTR I & II or GTR I/II only 
Effect:Distortion/Overdrive 
e|-------| 
B|-------| 
G|-9-----| 
D|-9--7--|2x 
A|-7--7--| 
E|----5--| 
 
Refrain:GTR I & II 
Effect:Tremolo(GTR I),Mild Distortion(GTR II) 
e|-0--0--0--0--0--| 
B|-0--0--0--0--0--| 
G|-6--6--6--6--8--| 
D|-6--7--6--7--9--| 
A|-4--7--4--7--9--| 
E|----5-----5--7--| 
 
Chorus:GTR I & II 
 
GTR I 
Effect:Tremolo/Clean 
e|---0---0----0--0--|  |-0--0-0-| 
B|-0----------------|  |-5--0-0-| 
G|--8--8----6--6----|  |-6--6-8-| 
D|----9----7--7-----|2x|-6--7-9-|Once 
A|------------------|  |-4--7-9-| 
E|------------------|  |----5-7-| 
 
GTR II 
Effect:Distortion/Overdrive 
e|------------------|  |--------| 
B|------------------|  |--------| 
G|-9----------------|  |-6------| 
D|-9-9------7-------|2x|-6--7-9-|Once 
A|-7-9------7-------|  |-4--7-9-| 
E|---7------5-------|  |----5-7-| 
 
Solo:GTR I & II 
 
GTR I: 
Effect:Distortion/Overdrive 
e|--------------------------------12p10------10----------------------| 
B|-----9--9-10-12-10-9--9---------------14-12--14-12-10-14-12-10-10~~| 
G|-9-11-11------------11-9--9s11--------------------------------12---| 
D|--------------------------9s11-------------------------------------| 
A|-------------------------------------------------------------------| 
E|-------------------------------------------------------------------| 
 
e|-------19b21-17--------------------| 
B|---------------17~~-----12b14--10~~| 
G|-14s18-----------------------------| 
D|-14s18-----------------------------| 
A|-----------------------------------| 
E|-----------------------------------| 
 
GTR II: 
Effect:Distortion/Overdrive 
e|-------| 
B|-------| 
G|-9-----| 
D|-9--7--|2x 
A|-7--7--| 
E|----5--| 
 
Repeat refrain:GTR I & II 
Effect:Tremolo(GTR I),Mild Distortion(GTR II) 
e|-0--0--0--0--0--| 
B|-0--0--0--0--0--| 
G|-6--6--6--6--8--| 
D|-6--7--6--7--9--| 
A|-4--7--4--7--9--| 
E|----5-----5--7--| 
 
Outro: 
GTR I 
Effect:Tremolo/Clean 
e|---0---0----0--0--|  |-0--0-0-0-| 
B|-0----------------|  |----0-0-0-| 
G|--8--8----6--6----|  |-6--6-8-9-| 
D|----9----7--7-----|4x|-6--7-9-9-|Once 
A|------------------|  |-4--7-9-7-| 
E|------------------|  |----5-7---| 
 
GTR II 
Effect:Distortion/Overdrive 
e|------------------|  |----------| 
B|------------------|  |----------| 
G|-9----------------|  |-6------9-| 
D|-9-9------7-------|4x|-6--7-9-9-|Once 
A|-7-9------7-------|  |-4--7-9-7-| 
E|---7------5-------|  |----5-7---| 
 
 
                    -END- 
 
 
less
plus
Add to Songbook Print Version How to play lesson Submit videolesson
Click the best TAGS for this song:
None of them
Contributor: beasLuch Correct

If you can not find the chords or tabs you want, look at our partner E-chords. If you are a premium member, you have total access to our video lessons.

If you find a wrong Bad To Me from Cueshe, click the correct button above.

login/signup
my songbooks
my recent views
my submits