S Cueshe

Sorry chords

Cueshe

tools Ultimate Tabs

Start AutoScroll Font Size Down Font Size Up

Find us on Facebook

chords
tabs bass ukulele keyboards
drums
flute
harmonica
guitar pro
video
Ultimate-Tabs

Sorry

Legend 
0 - open string 
X - Dead String 
 
Chords used: 
 
E   : 022100 
A2  : X02200  
G#m : 466444 
B5  : X244XX 
 
 
Intro: E-A2 (2X) 
 
E|--------------------------|-------------------------------------| 
B|--------------------------|-------------------------------------| 
G|--------------------------|----4--2----4--2------1--------------| 
D|-----4--2-----4--2-----2--|------------------4------------------| 
A|-------------------4------|--0-------0--------------------------| 
E|-0---------0--------------|-------------------------------------| 
 
E|---2-0-----2-0-----0------|------7-5--------7--5----------------| 
B|----------------2---------|-----------------------7--9----------| 
G|--------------------------|-------------------------------------| 
D|-2------2-----------------|---7---------7-----------------------| 
A|--------------------------|-------------------------------------| 
E|--------------------------|-------------------------------------| 
Verse 1: E A2 In life nothings certain E A2 You'll never know when it'll happen E A2 Some burn out while some fade away E A2 It doesn't matter we're heading that way Refrain: G#m A2 If I had the time G#m A2 I'll spend it with you Verse 2: E A2 Time gets you old and weary E A2 Like a lifeless ordinary E A2 Some burn out while some fade away E I don't want you to go A2 I want you to stay Refrain: G#m A2 If I could turn back the time G#m A2 I'd spend it with you Chorus:(Ung B isang strum lng at hindi masyado marinig) Sabayan nyo nlng po ung song para mkuha nyo. E A2 I want you to know A2 B(slide from A2) E Even though you're gone E A2 - B (slide from A2) That I'm drowning in tears E A2 I wish you were here A2 B(slide from A) E And hear me say E A2 Believe me, I'm sorry adlib: The same as the intro Stanza: E A2 Feels like everything's undone Peace of mind still I haven't found And time will heal those broken mends I know it will come, but when will it end Refrain: G#m A2 If I could turn back the time G#m A2 I'd spend it with you Chorus:(Ung B isang strum lng at hindi masyado marinig) Sabayan nyo nlng po ung song para mkuha nyo. E A2 I want you to know A2 B(slide from A2) E Even though you're gone E A2 - B (slide from A2) That I'm drowning in tears E A2 I wish you were here A2 B(slide from A) E And hear me say E A2 Believe me, I'm sorry Bridge: G#m A2 I want you to know G#m A2 I want you to know Adlib: E-A2 (Parang sa intro tpos may halong mga lead) Refrain: G#m A2 If I could turn back the time G#m A2 I'd spend it with you Chorus:(Ung B isang strum lng at hindi masyado marinig) Sabayan nyo nlng po ung song para mkuha nyo. E A2 I want you to know A2 B(slide from A2) E Even though you're gone E A2 - B (slide from A2) That I'm drowning in tears E A2 I wish you were here A2 B(slide from A) E And hear me say E A2 Believe me, I'm sorry Ending: E - A2 (parehas din sa intro)
less
plus
Add to Songbook Print Version How to play lesson Submit videolesson
Click the best TAGS for this song:
None of them
Contributor: cocchazz Correct

If you can not find the chords or tabs you want, look at our partner E-chords. If you are a premium member, you have total access to our video lessons.

If you find a wrong Bad To Me from Cueshe, click the correct button above.

login/signup
my songbooks
my recent views
my submits