Damned

Generals tab

Damned

tools Ultimate Tabs

Start AutoScroll Font Size Down Font Size Up

Find us on Facebook

chords
tabs
bass
ukulele
keyboards
drums
flute
harmonica
guitar pro
video
Ultimate-Tabs

Generals

-------------------------------------------------------------------------------
                             Generals - The Damned
-------------------------------------------------------------------------------
Tabbed by: Chordmonkey
Email: [email protected]

Tuning: standard

  This is one of my favourite Damned songs, and seeing as there were no tabs for this, I 
I'd give it a go. Any questions or comments or corrections, drop me a line.

  Piano intro
e|---------------------------------------|
B|---------------------------------------|
G|-2-2-2-2-7-7-7-7-2-2-2-2-2-2-2-2-------|
D|--0-0-0-0-5-5-5-5-0-0-0-0-0-0-0-0------|
A|---------------------------------------|
E|---------------------------------------|

 Verse
e|---------------------------------------|
B|---------------------------------------|
G|-77777777----------777777777777777-----|
D|-77777777-55555555-777777777777777-----|
A|-55555555-55555555-555555555555555-----|
E|----------33333333---------------------|

 Pre-chorus
e|------------------------------|
B|------------------------------|
G|------------------------------|
D|---9---8---7---5--4~----------|
A|-7---7---7---7----------------|
E|------------------------------|

 Chorus
e|---------------------------------------|
B|---------------------------------------|
G|-7777-7777-6666-6666-------------------|
D|-7777-7777-7777-7777-------------------|
A|-----------------------3~--5~--77777---|
E|-----------------------1~--3~--55555---|


  Bridge (plays under saxophone)
e|-----------------------------------------------------|
B|-----------------------------------------------------|
G|-----------------------------------------------------|
D|-9--10-------9--7--------9--7--------9--10-----------|
A|-7--8--7~----7--5--9~----7--5--9~----7--8--7~--------|
E|-------5~----------7~----------7~----------5~--------|


  This song has a lot of guitar licks dotted everywhere. The chorus and verses never 
so I'll be tabbing out the licks and try to tell you where they appear.

  End of chorus 1
e|------------------------------|
B|----10------------------------|
G|-9b----9r-(9)p7---7h9-7~------|
D|----------------9-------------|
A|------------------------------|
E|------------------------------|

  Verse 2
 pm....
e|-----------------|-------------------------|
B|------------7----|-----10--10--10---12-----|
G|-------7-9~-9b---|-----12b-12b-12b--14b----|
D|---7-9-----------|-------------------------|
A|-9---------------|-------------------------|
E|-----------------|-------------------------|

  Pre-chorus 2
e|-------------------------|---------------|
B|-12-12-12--12------------|---12--12------|
G|-12-12-12--14b--12~------|---15b-15b-----|
D|--------------------14~--|---------------|
A|-------------------------|---------------|
E|-------------------------|---------------|

 Pre-chorus 3
e|------------|-----------------------------|
B|-10---------|------------------------12---|
G|-12b--9~----|---------------12~------15b--|
D|------------|--10--12--14b----------------|
A|------------|-----------------------------|
E|------------|-----------------------------|


| /  slide up
| \  slide down
| h  hammer-on
| p  pull-off
| r  release bend
| ~  vibrato
| +  harmonic
| x  Mute note
===============================================================================
less
plus
Add to Songbook Print Version How to play lesson Submit videolesson
Click the best TAGS for this song:
None of them
Contributor: simomfor Correct

If you can not find the chords or tabs you want, look at our partner E-chords. If you are a premium member, you have total access to our video lessons.

If you find a wrong Bad To Me from Damned, click the correct button above.

login/signup
my songbooks
my recent views
my submits