tools Ultimate Tabs

Start AutoScroll Font Size Down Font Size Up

Find us on Facebook

chords
tabs
bass
ukulele keyboards
drums
flute
harmonica
guitar pro
video
Ultimate-Tabs

My Day

Technique: p = pull off,  ~ = hold note,  * = single strum 
Chords:  G  C  Em  D  Dsus4  G5  C5  E5  D5 
      e--3--0--0---2--3------x---x---x---x-| 
      B--3--1--0---3--3------x---x---x---3-| 
      G--0--0--0---2--2------x---x---x---2-| 
      D--0--2--2---0--0------5---5---2---0-| 
      A--2--3--2---x--x------5---5---2---x-| 
      E--3--x--0---x--x------3---3---0---x-| 


Notes: In the actual song the guitar plays an e (note) throughout the intro. 
       During the verses the guitar plays the following: 
          e---------|--------|--------|--------| 
          B-55555555|55555555|55555553|33333333| 
          G---------|--------|--------|--------| 
          D---------|--------|--------|--------| 
          A---------|--------|--------|--------| 
          E---------|--------|--------|--------| 
       During verse two the piano plays the following twice: 
          e---000--0|00------|---- 
          B---------|----333-|-333 
          G--0------|--------|---- 
          D-2-----2-|---0----|0--- 
          A------3--|--2----0|---- 
          E---------|--------|---- 
Intro (Play Twice) 
 C                 G     Em  D 
e---0~~~~|---0~~~~|---------|--------| 
B--------|--------|---3~~---|--------| 
G--0-----|--0-----|--0---4p2|~~~~~~~~| 
D-2------|-2------|-0-------|--------| 
A--------|--------|---------|--------| 
E--------|--------|---------|--------| 
Verse Em* C* G* D* Like a lotus flower growing in the dirt Em* C* G* D* Ain't nobody ever noticed what its worth Em* C* Til the sun shines and the rain falls and G* D* In no time it all is beautiful Chorus Em C G D This is my day, this is my day Em C G D Ohhhh, wont let it slip away Em C C D Dsus4 Oh, I'm waiting for these changes to say, this is my day
e---0~~~~|---0~~~~|---------|--------| 
B--------|--------|---3~~---|--------| 
G--0-----|--0-----|--0---4p2|~~~~~~~~| 
D-2------|-2------|-0-------|--------| 
A--------|--------|---------|--------| 
E--------|--------|---------|--------| 
Verse (In the version she sang on the voice there are power chords here) C5 E5 D5 G5 There's a voice inside that's trying to be heard, hmmm C5 E5 D5 G5 And its echoing across the universe G5 E5 G5 D5 C5 E5 If you listen it'll lead you to that place you've always been running to Em C G D This is my day, this is my day Em C G D Ohhhh, wont let it slip away Em C C D Dsus4 Em C Oh, I'm waiting for these changes to say, this is my day Bridge D Dsus4 Em C I always saw it coming D C Em C A little light behind the clouds C D This is the start of something C D C Em My heart believes it now This is my day, this is my day E5 C5 G5 D5 Ohhh, wont let it slip away Em C G D Oh, this is my day, this is my day Em C G D Ohhhh, wont let it slip away Em C C D Dsus4 Oh, I'm waiting for these changes to say, this is my Outro
 day                             ohhh my day 
e---0~~~~|---0~~~~|---------|--------|---0~~~~|---0~~~~|---------|--------| 
B--------|--------|---3~~---|--------|--------|--------|---3~~---|--------| 
G--0-----|--0-----|--0---4p2|~~~~~~~~|--0-----|--0-----|--0---4p2|~~~~~~~~| 
D-2------|-2------|-0-------|--------|-2------|-2------|-0-------|--------| 
A--------|--------|---------|--------|--------|--------|---------|--------| 
E--------|--------|---------|--------|--------|--------|---------|--------| 

Like a lotus flower growing in the dirt 
    e---------|--------|--------|--------| 
    B-5~5~5~5~|5~5~5~53|0~0~0~03|--------| 
    G---------|--------|--------|2~~~~~~~| 
    D---------|--------|--------|--------| 
    A---------|--------|--------|--------| 
    E---------|--------|--------|--------|
less
plus
Add to Songbook Print Version How to play lesson Submit videolesson
Click the best TAGS for this song:
None of them
Contributor: Metaotoo Correct

If you can not find the chords or tabs you want, look at our partner E-chords. If you are a premium member, you have total access to our video lessons.

If you find a wrong Bad To Me from Danielle Bradbery, click the correct button above.

login/signup
my songbooks
my recent views
my submits