David Blue

About My Love bass

David Blue

tools Ultimate Tabs

Start AutoScroll Font Size Down Font Size Up

Find us on Facebook

chords
tabs
bass
ukulele
keyboards
drums
flute
harmonica
guitar pro
video
Ultimate-Tabs

About My Love

Tabbed by: 6METAL6BASSIST6
E-mail: [email protected]

Tuning: EADG

0:09

G|------------|
D|--------4---|
A|5---7-------|
E|------------|

G|----------------------------------------------------------------|
D|5-----------5-----------5-------5-----------5---3---4---5-------|
A|--------5-------3---5-------5-----------5-------------------5---|
E|----------------------------------------------------------------|

G|------------------------------------------------------------------------|
D|5-----------5-----------5-------5-----------5---3---4---5-------5-------|
A|--------5-------3---5-------5-----------5-------------------------------|
E|------------------------------------------------------------------------|

G|----------------------------------------------------------------|
D|5---------------5-----------3---5---------------5-----------3---|
A|--------5-----------3---5---------------5-----------3---5-------|
E|----------------------------------------------------------------|

0:25

G|----------------------------------------------------------------|
D|5---------------3---4---5-------5-----------5---3---4---5-------|
A|--------5-------------------5-----------5-------------------5---|
E|----------------------------------------------------------------|

G|------------------------------------------------------------------------|
D|5-----------5---3---4---5-------5-----------5---3---4---5-------5-------|
A|--------5-------------------5-----------5-------------------------------|
E|------------------------------------------------------------------------|

G|----------------------------------------------------------------|
D|5---------------5-------3---4---5---------------5-------3---4---|
A|--------5-----------5-------------------5-----------5-----------|
E|----------------------------------------------------------------|

0:40

G|----------------------------------------------------------------|
D|5-----------5---3---4---5-------5-----------5---3---4---5-------|
A|--------5-------------------5-----------5-------------------5---|
E|----------------------------------------------------------------|

G|------------------------------------------------------------------------|
D|5-----------5---3---4---5-------5-----------5---3---4---5-------5-------|
A|--------5-------------------5-----------5-------------------------------|
E|------------------------------------------------------------------------|

G|----------------------------------------------------------------|
D|5---------------5-------3---4---5---------------5---------------|
A|--------5-----------5-------------------5---------------3---4---|
E|----------------------------------------------------------------|

0:55

G|----------------------------------------------------------------|
D|----------------------------------------------------------------|
A|5-------5-------5-------3---4---5-------5-------5-------3---4---|
E|----------------------------------------------------------------|

G|------------------------------------------------|
D|------------------------------------------------|
A|5-------5-------5-------3---4---5-------5-------|
E|------------------------------------------------|

G|----------------------------------------------------------------|
D|7---------------7---6---5---4---3---------------3-------4-------|
A|--------7-------------------------------3-----------------------|
E|----------------------------------------------------------------|

G|----------------------------------------------------------------|
D|5---------------5-------3---4---5---------------5-------3---4---|
A|--------5-----------5-------------------5-----------5-----------|
E|----------------------------------------------------------------|

1:13

G|----------------------------------------------------------------|
D|5---------------3---4---5-------5-----------5---3---4---5-------|
A|--------5-------------------5-----------5-------------------5---|
E|----------------------------------------------------------------|

G|------------------------------------------------------------------------|
D|5-----------5---3---4---5-------5-----------5---3---4---5-------5-------|
A|--------5-------------------5-----------5-------------------------------|
E|------------------------------------------------------------------------|

G|----------------------------------------------------------------|
D|5---------------5-------3---4---5---------------5-------3---4---|
A|--------5-----------5-------------------5-----------5-----------|
E|----------------------------------------------------------------|

1:28

G|----------------------------------------------------------------|
D|5-----------5---3---4---5-------5-----------5---3---4---5-------|
A|--------5-------------------5-----------5-------------------5---|
E|----------------------------------------------------------------|

G|------------------------------------------------------------------------|
D|5-----------5---3---4---5-------5-----------5---3---4---5-------5-------|
A|--------5-------------------5-----------5-------------------------------|
E|------------------------------------------------------------------------|

G|----------------------------------------------------------------|
D|5---------------5-------3---4---5---------------5-------3---4---|
A|--------5-----------5-------------------5-----------5-----------|
E|----------------------------------------------------------------|

1:43

G|----------------------------------------------------------------|
D|5-----------5---3---4---5-------5-----------5---3---4---5-------|
A|--------5-------------------5-----------5-------------------5---|
E|----------------------------------------------------------------|

G|------------------------------------------------------------------------|
D|5-----------5---3---4---5-------5-----------5---3---4---5-------5-------|
A|--------5-------------------5-----------5-------------------------------|
E|------------------------------------------------------------------------|

G|----------------------------------------------------------------|
D|5---------------5-------3---4---5---------------5---------------|
A|--------5-----------5-------------------5---------------3---4---|
E|----------------------------------------------------------------|

1:58

G|----------------------------------------------------------------|
D|----------------------------------------------------------------|
A|5-------5-------5-------3---4---5-------5-------5-------3---4---|
E|----------------------------------------------------------------|

G|------------------------------------------------|
D|------------------------------------------------|
A|5-------5-------5-------3---4---5-------5-------|
E|------------------------------------------------|

G|----------------------------------------------------------------|
D|7---------------7---6---5---4---3---------------3---2---3---4---|
A|--------7-------------------------------3-----------------------|
E|----------------------------------------------------------------|

G|--------------------------------|
D|5---------------5-------3---4---|
A|--------5-----------5-----------|
E|--------------------------------|

2:13

G|----------------------------------------------------------------|
D|5---------------5-------3---4---5-----------5---3---4---5-------|
A|--------5-----------5-------------------5-------------------5---|
E|----------------------------------------------------------------|

G|----------------------------------------------------------------|
D|5-----------5---3---4---5-------5-----------5---3---4---5-------|
A|--------5-------------------5-----------5-------------------5---|
E|----------------------------------------------------------------|

G|----------------------------------------|
D|5-----------5---3---4---5-------5-------|
A|--------5-------------------------------|
E|----------------------------------------|

G|----------------------------------------------------------------|
D|5---------------5-------3---4---5---------------5-------3---4---|
A|--------5-----------5-------------------5-----------5-----------|
E|----------------------------------------------------------------|

G|------------------------------------|
D|5---------------5-------3---4---5---|
A|--------5-----------5---------------|
E|------------------------------------|
less
plus
Add to Songbook Print Version How to play lesson Submit videolesson
Click the best TAGS for this song:
None of them
Contributor: Anonymous Correct

If you can not find the chords or tabs you want, look at our partner E-chords. If you are a premium member, you have total access to our video lessons.

If you find a wrong Bad To Me from David Blue, click the correct button above.

login/signup
my songbooks
my recent views
my submits