David Bowie

Ashes To Ashes bass

David Bowie

Album:Best of Bowie

Year:2002

tools Ultimate Tabs

Start AutoScroll Font Size Down Font Size Up

Find us on Facebook

chords tabs
bass
ukulele keyboards
drums
flute
harmonica
guitar pro video
Ultimate-Tabs

Ashes To Ashes

-----------------------------------------------------------------------------
ASHES TO ASHES - David Bowie
-----------------------------------------------------------------------------

Tabbed by: WibbleWobble
E-mail: [email protected]

Tuning:  standard EADG

Intro (play this x 5)

G|----------------------------------8p---------------------------------------|
D|------8p---------6p---------------------------8p---------------------------|
A|----------------------------6-6--------------------------------------------|
E|-6-6-------4-4---------------------------6-6-------------------------------|



Verse "do you remember a guy that's been....."
G|---------------------------------------------6p-------6p-------8p-------8p-|
D|-------6p-------6p--------3p------3p---------------------------------------|
A|---------------------------------------4-4-------4-4------6-6------6-6-----|
E|-4-4-------4-4-------1-1------1-1------------------------------------------|

G|--------------------------6-4----------------------------------------------|
D|-4-4-3-------------------------6---------3-1----------4-2-------------4----|
A|--------4-2----------4-4----------------------3-----------4-------------4--|
E|-------------2-1-2------------------1-1-----------2-2--------2----2-2------|

G|-------------------10------------------------------------------------------|
D|------6----------------10--------------------------------------------------|
A|--------4-----8-8----------------------------------------------------------|
E|-4-4-----------------------------------------------------------------------|

"the shrieking of nothing is killing..."
G|------3-------3-------------------------------------------8-------8--------|
D|-----------------------3-------3--------6-------6----------------------4-4-|
A|-1-1-----1-1-----------------------------------------6-6-----6-6-----------|
E|------------------1-1-----1-1------4-4-----4-4-----------------------------|

G|-------------------6-4-------------------------------6--------3------------|
D|-3----------------------6--3--------4-------6------------------------------|
A|---4-2---------4--------------------------------4-4-------1-1--------------|
E|-------2-1-2-------------------2-2-----4-4-----------------------2-2-2-2---|

G|---------------------------------------------------------------------------|
D|---------------------------------------------------------------------------|
A|---------------------------------------------------------------------------|
E|-4-4-4-4-------------------------------------------------------------------|

repeat as per intro again
G|----------------------------------8p---------------------------------------|
D|------8p---------6p---------------------------8p---------------------------|
A|----------------------------6-6--------------------------------------------|
E|-6-6-------4-4---------------------------6-6-------------------------------|

"time and again I tell myself"
G|---------------------------------------------6p-------6p-------8p-------8p-|
D|-------6p-------6p--------3p------3p---------------------------------------|
A|---------------------------------------4-4-------4-4------6-6------6-6-----|
E|-4-4-------4-4-------1-1------1-1------------------------------------------|

G|--------------------------6-4----------------------------------------------|
D|-4-4-3-------------------------6---------3-1----------4-2-------------4----|
A|--------4-2----------4-4----------------------3-----------4-------------4--|
E|-------------2-1-2------------------1-1-----------2-2--------2----2-2------|

G|-------------------10------------------------------------------------------|
D|------6----------------10--------------------------------------------------|
A|--------4-----8-8----------------------------------------------------------|
E|-4-4-----------------------------------------------------------------------|

"I never done good things..."
G|------3-------3-------------------------------------------8-------8--------|
D|-----------------------3-------3--------6-------6----------------------4-4-|
A|-1-1-----1-1-----------------------------------------6-6-----6-6-----------|
E|------------------1-1-----1-1------4-4-----4-4-----------------------------|

G|-------------------6-4-------------------------------6--------3----------------|
D|-3----------------------6--3-------4-------6-----------------------------------|
A|---4-2---------4--------------------------------4-4-------1-1------------------|
E|-------2-1-2-------------------2-2-----4-4-----------------------2-2-2-2-------|

G|------------------------------------------------------------------------------|
D|------------------------------------------------------------------------------|
A|----------1-------------------------------------------------------------------|
E|-4-4-4-4----------------------------------------------------------------------|

"my mamma said..." etc play out as per intro
G|----------------------------------8p---------------------------------------|
D|------8p---------6p---------------------------8p---------------------------|
A|----------------------------6-6--------------------------------------------|
E|-6-6-------4-4---------------------------6-6-------------------------------|


| /  slide up
| \  slide down
| h  hammer-on
| p  pull-off
| ~  vibrato
| +  harmonic
| x  Mute note
less
plus
Add to Songbook Print Version How to play lesson Submit videolesson
Click the best TAGS for this song:
None of them
Contributor: wiliduh_ Correct

If you can not find the chords or tabs you want, look at our partner E-chords. If you are a premium member, you have total access to our video lessons.

If you find a wrong Bad To Me from David Bowie, click the correct button above.

login/signup
my songbooks
my recent views
my submits