David Bowie

It Aint Easy bass

David Bowie

tools Ultimate Tabs

Start AutoScroll Font Size Down Font Size Up

Find us on Facebook

chords tabs
bass
ukulele keyboards
drums
flute
harmonica
guitar pro
video
Ultimate-Tabs

It Aint Easy

David Bowie - It Ain't Easy - The Rise and Fall of Ziggy Stardust
Bass tab, standard tuning

Intro
G|--------|--------|--------|--------|
D|--------|--------|--------|--------|
A|--------|--------|--------|--------|
E|-5---5--|-5---5--|-5---5--|-5---5--| x2

G|--------|--------|--------|----------|
D|--------|--------|--------|----------|
A|--------|--------|--------|----.-----|
E|-5---5--|-5---5--|-5--85--|-5--5-808-|

Chorus
G|--------------5--|--------------5--|-------------------|
D|----------7--7-5-|----------7--7-5-|-------------567~~-|
A|------5h7--------|------5h7--------|-3-333345-555------|
E|-5--5------------|-5--5------------|-------------------|

Verse
G|--------|--------|--------|--------|
D|--------|--------|--------|--------|
A|--------|--------|--------|--------|
E|-5---5--|-5---5--|-5---5--|-5---5--|

G|--------|--------|--------|----------|
D|--------|--------|--------|----------|
A|--------|--------|--------|----.-----|
E|-5---5--|-5---5--|-5---5--|-5--5-808-|

Chorus

Verse

Chorus x2 (Improv a bit in the repeat)

Outro
G|--------|--------|--------|----------|
D|--------|--------|--------|-7~~~~~~~-|
A|--------|--------|-----5--|----------|
E|-5---5--|-5---5--|-8------|----------|

Legend:
. = Staccato note
h = Hammer-on
~ = Sustain note
less
plus
Add to Songbook Print Version How to play lesson Submit videolesson
Click the best TAGS for this song:
None of them
Contributor: javegdjp Correct

If you can not find the chords or tabs you want, look at our partner E-chords. If you are a premium member, you have total access to our video lessons.

If you find a wrong Bad To Me from David Bowie, click the correct button above.

login/signup
my songbooks
my recent views
my submits