S David Bowie

John Im only dancing bass

David Bowie

Album:Best of Bowie

Year:2002

tools Ultimate Tabs

Start AutoScroll Font Size Down Font Size Up

Find us on Facebook

chords
tabs
bass
ukulele
keyboards
drums
flute
harmonica
guitar pro video
Ultimate-Tabs

John Im only dancing

Standard tuning: E A D G 
 
Pause 
 
Fill 1 (1x) 
|------| 
|-10-\-| 
|------| 
|------| 
 
Fig. 2 (1x) 
| --------------|---------- |-------7----------------------------5--4-----------| 
|-5--5--5--5---|--REPEAT-- |-5--5-----------------------------5-------7--7--7---| 
| ------------5-|-two-more-| ----------5-\--3--3--3--3---3--3-------------------| 
| --------------|---times---|---------------------------3-----------------------| 
 
| ----------------------|---------------|----------|---------------| 
|-7-/-10--10--10--10-\-|-5--5--5--5--- |--REPEAT--|-5--5--5--5-----| 
| ----------------------|-------------5-|-two-more-|---------------| 
| ----------------------|---------------|---times---|--------------| 
 
Fig. 3 (1x) 
|----------------------7--9--10--9--7------------------------9-9-----9-9---| 
| -----------7--9--10-------------------10--9--7------7--------------------| 
|-7--9--10----------------------------------------10-----7-7-----7-7-------| 
|--------------------------------------------------------------------------| 
 
|-----9-9---7--9-|-----9-9-|----------- |---------------------------------10-10----| 
|---------79-79--|---------|---REPEAT-- |-----10-10-----10-10------10-10-----------| 
|-7-7------------|-7-7-----|-three-more-|-8-8-------8-8--------8-8-----------------| 
|----------------|--------- |---times----|-----------------------------------------| 
 
|---------------------------------------------12-12---------| 
|-10-10-------12-12-------12-12--------12-12-------12-\-----| 
|-------10-10-------10-10--------10-10----------------------| 
|-----------------------------------------------------------| 
 
Fig. 4a (1x) 
|------------------------------------------------| 
| 7------7------7-7-75--------7-------7-5-5-5----| 
|-------------0-------70-------------------------| 
|------------------------------------------------| 
 
Pause 
Fill 1 (1x) 
Fig. 2 (1x) 
Fig. 3 (1x) 
 
Fig. 4b (1x) 
|------------------------| 
| -7------7------7-7-75--| 
|-------------0--------0-| 
|------------------------| 
 
Fig. 3 (1x) 
 
Fill 2 (1x) 
|------------------------| 
|-7------7------7-7-75-- | 
|-------------0--------7-| 
|------------------------| 
 
Fig. 4c (10x) 
| --------------------------| 
|--------7------7-7-75------| 
|-0-----------0--------7----| 
| --------------------------| 
 
End 
|-------------------| 
|------5------------| 
|-0-----------------| 
|-------------------| 
 
Pause until end 
 
less
plus
Add to Songbook Print Version How to play lesson Submit videolesson
Click the best TAGS for this song:
None of them
Contributor: lio_abea Correct

If you can not find the chords or tabs you want, look at our partner E-chords. If you are a premium member, you have total access to our video lessons.

If you find a wrong Bad To Me from David Bowie, click the correct button above.

login/signup
my songbooks
my recent views
my submits