Dead Moon

I Won't Be The One tab

Dead Moon

tools Ultimate Tabs

Start AutoScroll Font Size Down Font Size Up

Find us on Facebook

chords
tabs
bass
ukulele keyboards
drums
flute
harmonica
guitar pro
video
Ultimate-Tabs

I Won't Be The One

 

Intro: 
E|---2-3-3/5------5/7-5-3--2/3/2---- 
B|--3----------------------------3-- 
G|----------------------------------         
D|----------------------------------            
A|----------------------------------  
E|----------------------------------  
D Looking at my face in a photograph G I was only 17 D Been a long time since we looked like that G But you're the same boy standing by me D So i'll close my eyes in thoughts of you G Thinking it might be through D But i've got my pride though i'm alone tonight G Do you remember when we said i do D G I won't be the one who walks away D G I won't be the one who fades D G I won't be the one who walks away D G D I won't be the one who pains GUITAR SOLO 1: E|---2-3-2-3-2--- B|-------------3- G|--------------- D|--------------- A|--------------- E|--------------- Standing in the rain as they lowered the flag Wondering where the spirit was bound Thinking i could never feel that lost again But that was then and this is now I just wanted you to know i can't let go I'll be here if you still want me I'll be waiting in the shadows of the unlit side Where the lost souls are being set free Chorus
GUITAR SOLO 2: 
E|--5-5-5-5-3-2-2/3/2-------2-3-3/5-5-5—5/7-5-3-2-2/3/2-2--- 
B|---------------------3--3-------------------------------3- 
G|----------------------------------------------------------         
D|----------------------------------------------------------             
A|----------------------------------------------------------  
E|----------------------------------------------------------  
    

Chorus 

END in D 



CHORDS:                                                    
E|---2-0--3- 
B|---3-3--3- 
G|---2-2--0- 
D|---0-0--0- 
A|---0-0--2- 
E|--------3- 
     D    G  
Dead Moon: Fred Cole- Guitar, Vocals Toody Cole- Bass, Vocals Andrew Loomis- Drums "I Won´t Be The One" on "Nervous Sooner Changes" (1995, Music Maniac Records , MMLP 066, 1995), „Echoes Of The Past“(Sub Pop 2CD Compilation/The best of Dead Moon as compiled by rock & roll legend and survivor Fred Cole)and "Hard Wired In Ljubljana" (Empty Records/Music Maniac)
less
plus
Add to Songbook Print Version How to play lesson Submit videolesson
Click the best TAGS for this song:
None of them
Contributor: Moyr0200 Correct

If you can not find the chords or tabs you want, look at our partner E-chords. If you are a premium member, you have total access to our video lessons.

If you find a wrong Bad To Me from Dead Moon, click the correct button above.

login/signup
my songbooks
my recent views
my submits