Dean Martin

Aint that a kick in the head tab

Dean Martin

tools Ultimate Tabs

Start AutoScroll Font Size Down Font Size Up

Find us on Facebook

chords
tabs
bass
ukulele keyboards
drums
flute
harmonica
guitar pro
video
Ultimate-Tabs

Aint that a kick in the head

My First Full Tab so appologies for slight errors

This song is usually performed by an orchestra but i thought it'd be cool to convert it 
electric guitar for my band to do a cover.  This tab is for 2 guitars but if your a good 
take the challenge of playing both parts, it's just about possible.

The song is arranged oddly so sorry if the tab is a bit confusing

Standard Tuning

Intro
Verse x2
Prechorus
Verse 2
Instrumental
(Like the fella...)
Instrumental
(like The Sailor...)
Prechorus
Verse 3
Ending

\= slide down
^=Staccato

Intro
-------------------------------|------------------------------------------|
-------------------------------|------------------------------------------|
-13-13-11-13-13-11-13-13-11-13-|------------------------------------------|
-------------------------------|-11-9-7-9-9-7-9-9-7-9-9-7-9---------------|
-------------------------------|------------------------------------------|
-------------------------------|------------------------------------------|

Verse
Guitar 1
				(Like the fella..)
-----------------|--------------|--3-5-7-8-----------------------------|
-----------------|--------------|--3-5-7-8-----------------------------|
-----------------|--------------|--5-6-8-9--9-77-99-77-99-7-9\---------| x2
---------9-7-7-9-|------7-5-5-7-|--5-7-9-10----------------------------|
-----------------|--------------|--------------------------------------|
-----------------|--------------|--------------------------------------|

Guitar 2
How lucky can one guy  be;
		I kissed her and she kissed me
The room was completely black
		I hugged her and she hugged back.
---------------|----------------|-------------------------|
---------------|----------------|-------------------------|
---------------|----------------|-------------------------|  x2
-9-7-5-3-------|-5-7-9-7--------|--5-7-9-10-12------------|
-9-7-5-3-------|-5-7-9-7--------|--5-7-9-10-12------------|
---------------|----------------|-------------------------|
Play the above with Jazz/Blues style where previous note is stabbed a second time 
before moving down.

Prechorus
(My Head Keeps Spinnin')		**
--5------------7------------9-----------10-|
--5------------7------------9-----------10-|
--6------------8------------10----------11-|
--7------------9------------11----------12-|
--7------------9------------11----------12-|
--5------------7------------9-----------10-|

** Guitar 2 plays -17-
		  -17-
		  -18-
		  -19-
		  -19-
		  -17-

Verse 2
I've sun- shine enough to spread;
		It's like the fella said,
				"Tell me quick...

---------------|----------------|-------------------------|
---------------|----------------|-------------------------|
---------------|-9-7-5-3--------|-------------------------|
-9-7-5-3-------|-9-7-5-3--------|--101010-121212-14-------|
-9-7-5-3-------|----------------|--101010-121212-14-------|
---------------|----------------|-------------------------|

Instrumental

----------------------------|-------------------------|
-11-1313-11-13-11-13--------|-------------------------|
----------------------------|-11-1313-11-13-11-13-----|
----------------------------|-------------------------|
----------------------------|-------------------------|
----------------------------|-------------------------|

----------------------------|--------------------------------|
----------------------------|--------------------------------|
----------------------------|--------------------------------|
--------------------9-7-7-9-|--------------------7-5-5-7-----|
----------------------------|--------------------------------|
----------------------------|--------------------------------|


Guitar 1
(Like the fella..)
--3-5-7-8-----------------------------------|
--3-5-7-8-----------------------------------|
--5-6-8-9--9-77-99-77-99-7-9\---------------|
--5-7-9-10----------------------------------|
--------------------------------------------|
--------------------------------------------|

Guitar 2
-------------------------|
-------------------------|
-------------------------|
--5-7-9-10-12------------|
--5-7-9-10-12------------|
-------------------------|

Instrumental

Guitar 1
(Like the sailor..)
--3-5-7-8-----------------------------------|
--3-5-7-8--9-77-99-77-99-7-9\---------------|
--5-6-8-9-----------------------------------|
--5-7-9-10----------------------------------|
--------------------------------------------|
--------------------------------------------|

Guitar 2
-------------------------|
-------------------------|
-------------------------|
--5-7-9-10-12------------|
--5-7-9-10-12------------|
-------------------------|

Prechorus

Verse 3
---------------|----------------|----------|
---------------|----------------|----------|
---------------|-9-7-5-3--------|----------|
-9-7-5-3-------|-9-7-5-3--------|--5-9-7---|
-9-7-5-3-------|----------------|--5-9-7---|
---------------|----------------|----------|

-----------------|
-----------------|
7-9-11-14-7-9-16-|
-----------------|
-----------------|
-----------------|


Tell Me Quick, Oh Aint That A Kick,
--------------------------------------------------------------|
-------------------------------11-13-15-131113-13-15-131113---|
-11-13-15-131113-13-15-131113---------------------------------|
--------------------------------------------------------------|
--------------------------------------------------------------|
--------------------------------------------------------------|
Tell Me Quick, aint love a kick in the head...
-----------------------------13---------|
-----------13----------------13^--------|
-----------13^--------------------------|
----------------------------------------|
----------------------------------------|
----------------------------------------|

Improv Ending

Thats it

Any improvements, please add them!
less
plus
Add to Songbook Print Version How to play lesson Submit videolesson
Click the best TAGS for this song:
None of them
Contributor: Patafiel Correct

If you can not find the chords or tabs you want, look at our partner E-chords. If you are a premium member, you have total access to our video lessons.

If you find a wrong Bad To Me from Dean Martin, click the correct button above.

login/signup
my songbooks
my recent views
my submits