Dean Martin

Let It Snow bass

Dean Martin

chords tabs
bass
ukulele keyboards
drums
flute
harmonica
guitar pro
video
Ultimate-Tabs

Let It Snow

-----------------------------------------------------------------------------
                          LET IT SNOW - Dean Martin
-----------------------------------------------------------------------------

Tabbed by: Matt Broback
E-mail: [email protected]

Tuning: E A D G

s = sixteenth note

INTRO
|----------|
|:--------:|
|:--------:|
|----------|

VERSE 1                  ssss
|--------|--------|----------|--------|--------|--------|--------|--------|
|--6---6-|4-3---6-|-------8--|--6----6|--6---6-|4-3---6-|--------|--6--6--|
|4---4---|----6---|6---6-6-8-|6---4-6-|4---4---|----6---|6---6-68|6---4-4-|
|--------|-------6|--6-------|--------|--------|-------6|--6-----|--------|

CHORUS 1
|--------|--------|--------|--------|
|6---6-77|8---6---|6-----3-|----6--6|
|--6-----|--6---6-|--643---|--6---6-|
|--------|--------|--------|6-------|

VERSE 2
|--------|--------|--------|--------|
|--6---6-|------6-|--------|--6-----|
|4---4---|6-4-3---|6---6-68|6---4---|
|--------|-------6|--6-----|--------|

SOLO                            
|--------|--------|--------|--------|
|---6---6|--------|--------|--6---6-|
|4---4---|8--86---|6---6-68|6---4---|
|--------|-------6|---6----|--------|

CHORUS 2                 ss
|------ssss|--------|---------|--------|
|6---6-677-|----6---|6------3-|----6437|
|--6-------|--6---64|--6-43---|--6-----|
|----------|6-------|---------|6-------|

OUTRO  ss
|---------|--------|--------|--------|------7-|--7-----|
|--7----7-|5-4-2-7-|--------|---7-7-7|7----7--|-7---7--|
|5---5-5--|--------|--7---7-|787-----|--------|------5-|
|---------|--------|7---7---|--------|--------|--------|
less
plus
Add to Songbook Print Version How to play lesson Submit videolesson
Click the best TAGS for this song:
None of them
Contributor: contsjus Correct

If you can not find the chords or tabs you want, look at our partner E-chords. If you are a premium member, you have total access to our video lessons.

If you find a wrong Bad To Me from Dean Martin, click the correct button above.

login/signup
my songbooks
my recent views
my submits