Deana Carter

Absense Of The Heart 2 tab

Deana Carter

tools Ultimate Tabs

Start AutoScroll Font Size Down Font Size Up

Find us on Facebook

chords
tabs
bass
ukulele
keyboards
drums
flute
harmonica
guitar pro
video
Ultimate-Tabs

Absense Of The Heart 2

Deana Carter 
"Absense Of The Heart" 
Written by: Deana Carter, Chris Farren, and Chuck Jones. 
Tabbed by Eric Wright 
 
Here is the tab for the main riff and solo. 
I havn't figured the chords yet. 
 
Main Riff: Capo 1st fret. Fret numbers are actual fret's played. 
 
E---------------------------- 
B----1-1---1-2----1-1----1-2- 
G----1-1---1-3----1-1----1-3- 
D---------------------------- 
A---------------------------- 
E-2------2------2-----2------ 
 
 
E---------------------------- 
B---1-1---1-2-1---6-4-2-1---- 
G---1-1---1-3-1---6-5-3-1---- 
D---------------------------- 
A-1-----1-------1------------ 
E---------------------------- 
 
Solo: Starts while singing"...of the heart". 
 
E----------------------------------------------------------------------------- 
B----------------------------------------------------------------------------- 
G----10-11/13--10-11/13--11-10-11-13h15p13-13--10-11/13-11-------------------- 
D-13-------------------------------------------------------11-13-13h15p13h15-- 
A----------------------------------------------------------------------------- 
E----------------------------------------------------------------------------- 
 
 
E------------------------------------------------------------------------ 
B------------------------------------------------------------------------ 
G---------------------------------------------------10-11----10-11-11/13- 
D-13--13/15\13-11--11h13-13/15\13-13-11-13--10-11-13------13------------- 
A------------------------------------------------------------------------ 
E------------------------------------------------------------------------ 
 
This is a real easy song to play. Listen to it and get a feel for 
it and the tab comes easy. 
Eric Wright. 
 
 
 
less
plus
Add to Songbook Print Version How to play lesson Submit videolesson
Click the best TAGS for this song:
None of them
Contributor: cheexxxz Correct

If you can not find the chords or tabs you want, look at our partner E-chords. If you are a premium member, you have total access to our video lessons.

If you find a wrong Bad To Me from Deana Carter, click the correct button above.

login/signup
my songbooks
my recent views
my submits