Deep Purple

Black Night tab

Deep Purple

Album:Powerhouse

Year:1977

tools Ultimate Tabs

Start AutoScroll Font Size Down Font Size Up

Find us on Facebook

chords
tabs
bass ukulele keyboards
drums
flute
harmonica
guitar pro video
Ultimate-Tabs

Black Night

Gtr I (E A D G B E) - 'Ritchie Blackmore - overdrive electric'
Gtr II (E A D G B E) - 'Jon Lord dist. Organ arr. for Guitar'

all trem vibe ~~~ are v/wide and wild

Intro          Pre-Verse
  Q=135(8=s8)
             $
 4/4
  Gtr I
  Wx2            Q  E E Q  E E   Q  E E E E Q    E E Q  H      E E Q  H
|------------||----------------|---------------|-------------|--------------||
|------------||o---------------|---------------|-------------|-------------o||
|---Bass-----||----------------|---------------|-------------|--------------||
|----&-------||-----5----------|----5---7-5----|-------------|-5------------||
|---Drums----||o-7----7-5----5-|-7----7-----7--|-5-7---------|---7---------o||
|------------||------------7---|---------------|-------------|--------------||
              |-Riff 1                                           end Riff 1-|

   Verse 1 & 2                           Chorus
                                                                To Coda
    E E E E E E E E   E E E E E E E E  3x Q  T.T S. S +X  Q  E E
||------------------|------------------||------------------------||
||o-----------------|-----------------o||------------------------||
||------------------|------------------||------------------------||
||------------------|------------------||------------------------||
||o-5-7---7---7---7-|-5-7---7---7---7-o||-7--5h7p5--------5----5-||
||------------------|------------------||-----------7-(7)----7---||


         |-3-|        |-3-|
  Q  E E Q Q Q   Q  E S S S T. E. +X  E E   E E E E +H
|--------------|--------------------------|----------------|
|--------------|--------------------------|----------------|
|--------------|--------------------------|----------------|
|--------------|----7-5h7p5h7--5--(5)---5-|-----5-3-(3)----|
|-9--7-5-7-5---|----------------------7---|----------------|
|------------7-|-5------------------------|-3-3------------|


                    ~~~~~~~
  |--3--|
  E  E  E  E  E  E  E  +Q
|---------------------------|
|---------------------------|
|------12----12-14-12-(12)--|
|---12----14----------------|
|---------------------------|
|---------------------------|


                                    ~~~
   |---3----|  |---3----|                              |-3-|
   E     E  E  E     E  E  E     E  Q     E E E E +Q   E E E
|----------12----------12---------------|--------------------|
|-------12----------12----15b17-12------|--------------------|
|-14b16-------14b16----------------14--|--------------------|
|---------------------------------------|-----7-5-(5)------5-|
|---------------------------------------|---7----------6-7---|
|---------------------------------------|-5------------------|


                                                                 D.S. al Coda
                         1/   1/   1/     1/   1/   1/   1/
  E E E E +Q   E E   Q  +Q    +Q    +Q      +Q    +Q    +Q    +Q
|------------------|----------------------|-------------------------||
|------------------|----------------------|-------------------------||
|------------------|-4--(4)---(4)---(4)---|-(4)---(4)---(4)---(4)---||
|-----5-3-(3)----3-|-4--(4)---(4)---(4)---|-(4)---(4)---(4)---(4)---||
|---5----------5---|-2--(2)---(2)---(2)---|-(2)---(2)---(2)---(2)---||
|-3----------------|----------------------|-------------------------||


  &
         |-3-|               |-3-|
  Q  E E Q Q Q   Q  E E +Q   E E E
|--------------|-------------------|
|--------------|-------------------|
|--------------|-------------------|
|--------------|----7-5-(5)------5-|
|-9--7-5-7-5---|-------------5h7---|
|------------7-|-5-----------------|


                                              |--3--|
  E E E E +Q   E E    E  E  E     E     +Q    E  E  E
|------------------|-----------------------------------|
|------------------|-----------------------------------|
|------------------|-------14b16-14b16-(16)--14-12-----|
|-----5-3-(3)----3-|-12-14-------------------------14--|
|--------------5---|-----------------------------------|
|-3-3--------------|-----------------------------------|


            ~~~
   |--3--|                        |-3-|
   E  E  E  H.        Q  E E +Q   E E E
|-------------------|-------------------|
|-------------------|-------------------|
|-14p12----12-------|-------------------|
|-------14----------|----7-5-(5)------5-|
|-------------------|-------------5h7---|
|-------------------|-5-----------------|


                       1/   1/   1/
  E E E E Q  E E   Q  +Q    +Q    +Q
|----------------|----------------------|
|----------------|----------------------|
|----------------|-4--(4)---(4)---(4)---|
|-0-3-5-3------3-|-4--(4)---(4)---(4)---|
|------------5---|-2--(2)---(2)---(2)---|
|----------------|----------------------|


                            Guitar Solo
   1/   1/   1/   1/
                                 ~~~~~~~~~~~~~~~~~
  +Q    +Q    +Q    +Q        E  E  +Q    +H
|-------------------------||---------------------|
|-------------------------||-12------------------|
|-(4)---(4)---(4)---(4)---||----12-(12)--(12)----|
|-(4)---(4)---(4)---(4)---||---------------------|
|-(2)---(2)---(2)---(2)---||---------------------|
|-------------------------||---------------------|


 ~~~~~~~~~~~~~~                              ~~~~
                   |-3--|
   +H      +E   E  E E  E    E    E  Q      +H
|-------------------------|---------15-----(15)----|
|--------------15s13------|-15b17---15b17--(17)----|
|-(12)----(12)------------|------------------------|
|-------------------------|------------------------|
|-------------------------|------------------------|
|--------------------8s10-|------------------------|


   ~~~~~~~~~~~~~~~~~~~~~~
   |--3--|       |--3--|    |-3--|  |--3--|              |---3----|  |--3--|
   Q  Q  Q  Q    E  E  E    E  E E  E  E  E  S  +X   T.  S     S  S  E  E  E
|-15----15-14--------20-|---------20-18-17-15-(15)-15--15b17r15-12----------|
|----15---------10s17----|-20-20------------------------------------15-12-15-|
|------------------------|---------------------------------------------------|
|------------------------|---------------------------------------------------|
|------------------------|---------------------------------------------------|
|------------------------|---------------------------------------------------|


   |--3--|  |--3--|                  |--3--|
   E  E  E  E  E  E  T. T  S.  T  T. E  E  E
|-12-----------------------------------------|
|----12--------------------------------------|
|-------15-14-12h14-15s14-12--------------14-|
|-----------------------------14p12--x-14----|
|--------------------------------------------|
|--------------------------------------------|


             ~~~~~~~~~~~~~~~       ~~~~~~~~~~~~~~~~~~~~~~~
                                   |--3--|        |--3--|
   S  X  S.  H     +S   +X  E E    Q  Q  Q  E  E  E  E  E
|-------------------------------|-------------------------|
|-------------------------------|-17-17-17-17-17p14h17p14-|
|-------12--14----(14)-(14)-0---|-------------------------|
|-14-14-----------------------0-|-------------------------|
|-------------------------------|-------------------------|
|-------------------------------|-------------------------|


   ~~~~~~~~~~~~~~~~~~~~~~~~~~~~~~~~~~                                      ~~~
   |--3--|                            |--3--|    |--3--| |--3--|  |--3--|
   E  E  E  S  +X   S.  Q   +S   +X   E  E  E    E  E  E E  E  E  E  E  E  Q
|---------------------------------------------|--------------------------------|
|-17p14h17-12-(12)h15--12--(12)-(12)----------|-14p12---------14----12-12-12--|
|------------------------------------14-12h14-|-------14-x-14----14------------|
|---------------------------------------------|--------------------------------|
|---------------------------------------------|--------------------------------|
|---------------------------------------------|--------------------------------|


   |--3--|                     |--3--|  |--3--|
   E  E  E  S  +X   S.  T  T.  E  E  E  E  E  E
|------------------------------------------------|
|-12---------------------------------------------|
|----14-14-12-(12)-14--14p12-----14-12----14-12--|
|-----------------------------14-------14--------|
|------------------------------------------------|
|------------------------------------------------|


   |--3--|
   E  E  E  T.  T  S.  S  +X   T. T  S.  S  +X   Q
|---------------------------------------------------|
|---------------------------------------------------|
|----14----12--14p12--------------------------------|
|-14----14------------14-(14)p12h14p12--------------|
|---------------------------------------15-(15)-----|
|-----------------------------------------------12--|


                         |-3-|
  Q  E E Q  E E   Q  E E Q Q Q
|---------------|--------------||
|---------------|--------------||
|---------------|--------------||
|---------------|--------------||
|-7--5---5----5-|-9--7-5-7-5---||
|------7----7---|------------7-||


 Organ Break
  W                         S E     S +Q     +H
|-------------------------|--------------------------------|
|-------------------------|--------------------------------|
|-------------------------|--------------------------------|
|-------------------------|---------5-(5)----(5)-----------|
|-------------------------|-5h7----------------------------|
|-5-----------------------|--------------------------------|
|
| Gtr II
| |-3-|       |-3-|         |--3--|           |-3--|
| E E E  E  E E E E  E  E   E   E E    E   E  E  E E  E  E
|-------------------------|--------------------------------|
|-------------------------|--------------------------------|
|-------12----------12----|-----------12--14---------12-14-|
|-x-x-x-10-14-x-x-x-10-14-|-x---x-x---10--12--x--x-x-10-12-|
|----------12----------12-|--------------------------------|
|-------------------------|--------------------------------|


  E   E    E  E E    E    E  E
|-------------------------------|
|-------------------------------|
|-------------------------------|
|-------------------------------|
|-5---7-------7------7-------7--|
|-3---5-------5------5-------5--|
|-Rhy Fig 1       end Rhy Fig 1-|
|
| |--3--|       |--3---|
| E E   E  E  E E  E   E  E  E
|-------------------------------|
|-------------------------------|
|---------16-14---16-----14-16--|
|-x-x---x-14-12---14-----12-14--|
|-------------------------------|
|-------------------------------|


w/Rhy Fig 1 x9
  |--3---|       |--3---|
  E  E   E  E  E E  E   E  E  E
|----------------------------12-|
|-------------15----------15-10-|
|---14-----16-12---16-----12----|
|---12-----14------14-----------|
|-------------------------------|
|-------------------------------|



            |--3--|  |--3--|  |--3--|  |--3---|
   E  S  S  S  S  S  S  S  S  S  S  S  S  S  +S  Q       Q    H        Q
|----------------------------------------------------|-/17---17-------17---|
|-10-17p10-17p10-17p10-17p10-17p10-17p10-17-(17)-----|-/17---17-------17---|
|----------------------------------------------------|---------------------|
|------------------------------------------------x---|---------------------|
|------------------------------------------------x---|---------------------|
|------------------------------------------------x---|---------------------|


             |---3---|
    H        E  E    E  Q
|-/17-------17-17---17-17---|
|-/17-------17-17---17-17---|
|---------------------------|
|---------------------------|
|---------------------------|
|---------------------------|



                     |--3--|
    E  E  E  E  +E   S  S  S  a     +E   E     Q    E  E E  E  E  E
|-----15----15-(15)------------------------|-------------------------|
|-/17----17-15-(15)------------------------|-/17---17-17---17-15-----|
|-------------------17-19-17---------------|-/14---14-14---14-12-16--|
|----------------------------19b21-(21)-17-|---------------------14--|
|------------------------------------------|-------------------------|
|------------------------------------------|-------------------------|



  |----3----|        |---3---|         |---3----|        |---3----|
  E   E    +E   E  E E  E    E  E  E   E  E    +E   E  E E  E    +E   E  E
|------------------------------------|-------------------------------------|
|---/17---(17)-18-17---15---15-------|-------------------------------------|
|---/14---(14)-14-14---12---12-16-14-|---16---(16)-16-14----------------12-|
|------------------------------14-12-|---14---(14)-14-12---15---(15)-14-10-|
|------------------------------------|---------------------15---(15)-12----|
|------------------------------------|-------------------------------------|



  |---3----|        |---3----|
  E  E    +E   E  E E  E    +E   E  E
|--------------------------------------||
|--------------------------------------||
|-------------12------12---(12)-14-14--||
|---14---(14)-10-14---10---(10)-12-12--||
|---12---(12)----12--------------------||
|--------------------------------------||


   Pre-Verse
   Riff 1 x2


  Verse 3             Chorus
    E E E E E E E E  6x Q  E E Q  E E
||-------------------||---------------|
||o-----------------o||---------------|
||-------------------||---------------|
||-------------------||---------------|
||o-5-7---7---7---7-o||-7--5---5----5-|
||-------------------||------7----7---|


         |-3-|        |-3-|
  Q  E E Q Q Q   Q  E S S S T. E. +X  E E
|--------------|---------------------------|
|--------------|---------------------------|
|--------------|---------------------------|
|--------------|----7-5h7p5h7--5--(5)---5--|
|-9--7-5-7-5---|----------------------7----|
|------------7-|-5-------------------------|


                                          /1
                                                 ~~~
               |-3-|     |--3--|       |--3---|
  E E E E +Q   E E E     E  E  E  E  E E +E   E  Q
|---------------------|------------------------------|
|---------------------|------------------------------|
|---------------------|----------12-12p0-(0)--0------|
|-----5-3-(3)----3----|----12-14----------------12--|
|--------------5---5-|-14---------------------------|
|-3-x-----------------|------------------------------|


                              ~~
   |--3--|  |--3--|  |--3--|
   E  E  E  E  E  E  E  E  E  Q
|--------------------------------|
|--------------------------------|
|----12-15p12-14-14-12-------14--|
|-14-------------------12-14-----|
|--------------------------------|
|--------------------------------|


  E E E E +Q   E E   E E E E +Q   E E
|------------------|------------------|
|------------------|------------------|
|------------------|------------------|
|-----7-5-(5)----5-|-----5-3-(3)----3-|
|---7----------7---|---5----------5---|
|-5----------------|-3----------------|


      1/   1/   1/     1/   1/   1/   1/
  Q  +Q    +Q    +Q      +Q    +Q    +Q    +Q
|----------------------|-------------------------||
|----------------------|-------------------------||
|-4--(4)---(4)---(4)---|-(4)---(4)---(4)---(4)---||
|-4--(4)---(4)---(4)---|-(4)---(4)---(4)---(4)---||
|-2--(2)---(2)---(2)---|-(2)---(2)---(2)---(2)---||
|----------------------|-------------------------||


 Outro - Solo
                               ~~~~~
    |--3--|  |--3--|  |--3--|          |--3--|  |--3--|  |--3--|
    E  E  E  E  E  E  E  E  E  E  E    E  E  E  E  E  E  E  E  E  +E  E
|-----------------------------------|-----------------------------------|
|-----------------------------------|-----------------------------------|
|-/15-12-14-14-12----15-12h14-14p12-|-14p13-14-14p12-------14-12-(12)---|
|-----------------14----------------|----------------12-14--------------|
|-----------------------------------|-----------------------------------|
|-----------------------------------|-----------------------------------|


   |--3--|  |--3--|   |--3---|  |---3---|  |--3---|
   E  E  E  S  S  S  +S   S  S  S  +S   S  S  S  +S   E  E
|----------------------------------------------------------|
|----------------------------------------------------------|
|-16-12----14p12---------14p12---------14p12---------12-14-|
|-------14-------14-(14)-------14-(14)-------14-(14)-------|
|----------------------------------------------------------|
|----------------------------------------------------------|


            ~~
   |---3----|                                 |--3--|
   E     E  E  E     E     +Q    E E    Q     E  E  E  E     E  E  E
|----------12------------------------|-17b19-19-18-17-15b17-------17b19--|
|-------12----15b17-15b17-(17)--15---|----------------------17----------|
|-14b16-------------------------14---|-----------------------------------|
|------------------------------------|-----------------------------------|
|------------------------------------|-----------------------------------|
|------------------------------------|-----------------------------------|


              |--3--|  |--3--|
   +E   E     E  E  E  E  E  E E  E
|-(19)-17b19-19-18-17-14-15------17b19-|
|---------------------------17p0-------|
|--------------------------------------|
|--------------------------------------|
|--------------------------------------|
|--------------------------------------|


         |--3--|  |---3---|  |--3---|   |--3--|
   +Q    E  E  E  S  +S   S  S  S  +S   E  E  E
|-(19)--18-17-15-17-(17)-18p17p15-(15)-------17-|
|--------------------------------------16-17----|
|-----------------------------------------------|
|-----------------------------------------------|
|-----------------------------------------------|
|-----------------------------------------------|


   |--3--|  |--3--|  |--3--|  |--3--|
   E  E  E  E  E  E  E  E  E  E  E  E
|----15-15----------------------------|
|-17-------17-------------------------|
|-------------16-15-14p12-14-14-12----|
|----------------------------------12-|
|-------------------------------------|
|-------------------------------------|


   |--3--|  |--3--|                 |--3--|
   E  E  E  E  E  E  T  T  T  T  E  E  E  E
|--------------------------------------------|
|--------------------------------------------|
|----14----12-12-----------------------------|
|-14----14-------14-12h14p12-----------------|
|----------------------------14-13-12-10-10--|
|--------------------------------------------|


   S  S  S  S  E  S  S  +E   E  Q
|-----------------------------------|
|-----------------------------------|
|-----------------------------------|
|-------12----14----12-(12)-14-14--|
|-13-14----14----14-----------------|
|-----------------------------------|


  |-3-| |-3-| |-3-| |-3-|
  E E E E E E E E E E E E   E    E    +H     E  E
|-------------------------|-----------------------|
|-------------------------|--------------------12-|
|-----------7-----------7-|-9b11-9b11-(11)--------|
|---5-7-8-9---7-5-7-8-9---|-----------------------|
|-7-----------------------|-----------------------|
|-------------------------|-----------------------|


               |--3--|  |--3--| |-3--|
   a     +Q    E  E  E  E  E  E E  E E
|--------------------------------------|
|-12b15-(15)--12-11-10-----------------|
|----------------------12-11-10-9------|
|---------------------------------12-9-|
|--------------------------------------|
|--------------------------------------|


                                    ~
   |-3-|  |--3--|   |-3-|  |--3--|
   S S S +S  S +S   S S S +S  S +S  H
|----------------------------------------*|
|----------------------------------------*|
|-10s9-7-(7)-9-(9)-10s9-7-(7)-------9----*|
|-----------------------------9-(9)------*|
|----------------------------------------*|
|----------------------------------------*|

_______________________________________________________
Contribuição: Rafael da Sillva Carvalho Santana([email protected]) 
less
plus
Add to Songbook Print Version How to play lesson Submit videolesson
Click the best TAGS for this song:
None of them
Contributor: tjac2722 Correct

If you can not find the chords or tabs you want, look at our partner E-chords. If you are a premium member, you have total access to our video lessons.

If you find a wrong Bad To Me from Deep Purple, click the correct button above.

login/signup
my songbooks
my recent views
my submits