Deep Purple

Cut Runs Deep tab

Deep Purple

tools Ultimate Tabs

Start AutoScroll Font Size Down Font Size Up

Find us on Facebook

chords
tabs
bass
ukulele
keyboards
drums
flute
harmonica
guitar pro video
Ultimate-Tabs

Cut Runs Deep

Band: Deep Purple
Song: Cut Runs Deep
Album: Slaves and Masters





Guitar 1:



     W                   W                   W                 
E||-------------------|-------------------|-------------------|
B||-------------------|-------------------|-------------------|
G||-------------------|-------------------|-------------------|
D||-------------------|-------------------|-------------------|
A||-------------------|-------------------|-------------------|
E||-------------------|-------------------|-------------------|


  W                   W                   W                   W                 
-------------------|-------------------|-------------------|-------------------|
-------------------|-------------------|-------------------|-------------------|
-------------------|-------------------|-------------------|-------------------|
-------------------|-------------------|-------------------|-------------------|
-------------------|-------------------|-------------------|-------------------|
-------------------|-------------------|-------------------|-------------------|


  W                   W                   W                   W                 
-------------------|-------------------|-------------------|-------------------|
-------------------|-------------------|-------------------|-------------------|
-------------------|-------------------|-------------------|-------------------|
-------------------|-------------------|-------------------|-------------------|
-------------------|-------------------|-------------------|-------------------|
-------------------|-------------------|-------------------|-------------------|


  W                   W                   W                   W                 
-------------------|-------------------|-------------------|-------------------|
-------------------|-------------------|-------------------|-------------------|
-------------------|-------------------|-------------------|-------------------|
-------------------|-------------------|-------------------|-------------------|
-------------------|-------------------|-------------------|-------------------|
-------------------|-------------------|-------------------|-------------------|


  W                   W                   W                   W                 
-------------------|-------------------|-------------------|-------------------|
-------------------|-------------------|-------------------|-------------------|
-------------------|-------------------|-------------------|-------------------|
-------------------|-------------------|-------------------|-------------------|
-------------------|-------------------|-------------------|-------------------|
-------------------|-------------------|-------------------|-------------------|


  W                    E   E  E  E  E  E  E  E     E  E  E  E  E   E  E   E   
-------------------|----------------------------|----------------------------|
-------------------|----------------------------|----------------------------|
-------------------|----------------------------|----------------------------|
-------------------|----------------------------|----------------------------|
-------------------|--10p--7-----7--------7-----|--------7-----5h--7--5h--7--|
-------------------|----------0-----0--0-----0--|--0--0-----0----------------|


   E   E  E  E  E  E  E  E     E  E  Q    H         
----------------------------|----------------------|
----------------------------|----------------------|
----------------------------|--------7----9--------|
----------------------------|--------7----9--------|
--10p--7-----7--------7-----|-----7----------------|
----------0-----0--0-----0--|--0-------------------|


   E   E  E  E  E  E  E  E     E  E  E  E  E   E  E   E   
----------------------------|----------------------------|
----------------------------|----------------------------|
----------------------------|----------------------------|
----------------------------|----------------------------|
--10p--7-----7--------7-----|--------7-----5h--7--5h--7--|
----------0-----0--0-----0--|--0--0-----0----------------|


   E   E  E  E  E  E  E  E     E  E  Q    H            E   E  E  E  E  E  Q     
----------------------------|----------------------|---------------------------|
----------------------------|----------------------|---------------------------|
----------------------------|--------7----9--------|---------------------------|
----------------------------|--------7----9--------|-------------9--------9----|
--10p--7-----7--------7-----|-----7----------------|--10p--7-----7--------7----|
----------0-----0--0-----0--|--0-------------------|----------0-----0--0-------|


  H        E   E  E   E      E   E  E  E  E  E  Q       Q    Q    H         
-------------------------|---------------------------|---------------------|
-------------------------|---------------------------|---------------------|
-------------------------|---------------------------|-------7----9--------|
--L--------7S--9--7S--9--|-------------9--------9----|--L----7----9--------|
--L--------5S--7--5S--7--|--10p--7-----7--------7----|--L------------------|
-------------------------|----------0-----0--0-------|---------------------|


   E   E  E  E  E  E  Q       H        E   E  E   E   
---------------------------|-------------------------|
---------------------------|-------------------------|
---------------------------|-------------------------|
-------------9--------9----|--L--------7S--9--7S--9--|
--10p--7-----7--------7----|--L--------5S--7--5S--7--|
----------0-----0--0-------|-------------------------|


   E   E  E  E  E  E  Q       Q    Q    H            E   E  E  E  E  E  E  E   
---------------------------|---------------------|----------------------------|
---------------------------|---------------------|----------------------------|
---------------------------|-------7----9--------|----------------------------|
-------------9--------9----|--L----7----9--------|----------------------------|
--10p--7-----7--------7----|--L------------------|--10p--7-----7--------7-----|
----------0-----0--0-------|---------------------|----------0-----0--0-----0--|


  E  E  E  E  E   E  E   E      E   E  E  E  E  E  E  E   
----------------------------|----------------------------|
----------------------------|----------------------------|
----------------------------|----------------------------|
----------------------------|----------------------------|
--------7-----5h--7--5h--7--|--10p--7-----7--------7-----|
--0--0-----0----------------|----------0-----0--0-----0--|


  E  E  E  E  E   E  E   E      E   E  E  E  E  E  E  E   
----------------------------|----------------------------|
----------------------------|----------------------------|
----------------------------|----------------------------|
----------------------------|----------------------------|
--------7-----5h--7--5h--7--|--10p--7-----7--------7-----|
--0--0-----0----------------|----------0-----0--0-----0--|


  E  E  E  E  E   E  E   E      E   E  E  E  E  E  E  E   
----------------------------|----------------------------|
----------------------------|----------------------------|
----------------------------|----------------------------|
----------------------------|----------------------------|
--------7-----5h--7--5h--7--|--10p--7-----7--------7-----|
--0--0-----0----------------|----------0-----0--0-----0--|


  E  E  E  E  E   E  E   E      E   E  E  E  E  E  E  E   
----------------------------|----------------------------|
----------------------------|----------------------------|
----------------------------|----------------------------|
----------------------------|----------------------------|
--------7-----5h--7--5h--7--|--10p--7-----7--------7-----|
--0--0-----0----------------|----------0-----0--0-----0--|


  E  E  E  E  E   E  E   E      E   E  E  E  E  E  E  E   
----------------------------|----------------------------|
----------------------------|----------------------------|
----------------------------|----------------------------|
----------------------------|----------------------------|
--------7-----5h--7--5h--7--|--10p--7-----7--------7-----|
--0--0-----0----------------|----------0-----0--0-----0--|


  E  E  Q    H            E   E  E  E  E  E  E  E   
----------------------|----------------------------|
----------------------|----------------------------|
--------7----9--------|----------------------------|
--------7----9--------|----------------------------|
-----7----------------|--10p--7-----7--------7-----|
--0-------------------|----------0-----0--0-----0--|


  E  E  E  E  E   E  E   E      E   E  E  E  E  E  E  E   
----------------------------|----------------------------|
----------------------------|----------------------------|
----------------------------|----------------------------|
----------------------------|----------------------------|
--------7-----5h--7--5h--7--|--10p--7-----7--------7-----|
--0--0-----0----------------|----------0-----0--0-----0--|


  E  E  Q    H            E   E  E  E  E  E  E  E   
----------------------|----------------------------|
----------------------|----------------------------|
--------7----9--------|----------------------------|
--------7----9--------|--10p--7-----7--------7-----|
-----7----------------|----------0-----0--0-----0--|
--0-------------------|----------------------------|


  E  E  E  E  E   E  E   E      E   E  E  E  E  E  E  E   
----------------------------|----------------------------|
----------------------------|----------------------------|
----------------------------|----------------------------|
--------7-----5h--7--5h--7--|--10p--7-----7--------7-----|
--0--0-----0----------------|----------0-----0--0-----0--|
----------------------------|----------------------------|


  E  E  E  E  E   E  E   E      E   E  E  E  E  E  E  E   
----------------------------|----------------------------|
----------------------------|----------------------------|
----------------------------|----------------------------|
--------7-----5h--7--5h--7--|----------------------------|
--0--0-----0----------------|--10p--7-----7--------7-----|
----------------------------|----------0-----0--0-----0--|


  E  E  E  E  E   E  E   E      E   E  E  E  E  E  E  E   
----------------------------|----------------------------|
----------------------------|----------------------------|
----------------------------|----------------------------|
----------------------------|----------------------------|
--------7-----5h--7--5h--7--|--10p--7-----7--------7-----|
--0--0-----0----------------|----------0-----0--0-----0--|


  E  E  E  E  E   E  E   E      E   E  E  E  E  E  E  E   
----------------------------|----------------------------|
----------------------------|----------------------------|
----------------------------|----------------------------|
----------------------------|--10p--7-----7--------7-----|
--------7-----5h--7--5h--7--|----------0-----0--0-----0--|
--0--0-----0----------------|----------------------------|


  E  E  E  E  E   E  E   E      E   E  E  E  E  E  E  E   
----------------------------|----------------------------|
----------------------------|----------------------------|
----------------------------|----------------------------|
--------7-----5h--7--5h--7--|--10p--7-----7--------7-----|
--0--0-----0----------------|----------0-----0--0-----0--|
----------------------------|----------------------------|


  E  E  E  E  E   E  E   E      E   E  E  E  E  E  E  E   
----------------------------|----------------------------|
----------------------------|----------------------------|
----------------------------|----------------------------|
--------7-----5h--7--5h--7--|--10p--7-----7--------7-----|
--0--0-----0----------------|----------0-----0--0-----0--|
----------------------------|----------------------------|


  E  E  E  E  E   E  E   E      W                   W                 
----------------------------|--------------------|-------------------|
----------------------------|--12----------------|--L----------------|
----------------------------|--12----------------|--L----------------|
--------7-----5h--7--5h--7--|--12----------------|--L----------------|
--0--0-----0----------------|--------------------|-------------------|
----------------------------|--------------------|-------------------|


  W                    E   E  E  E  E  E  E  E     E  E  E  E  E   E  E   E   
-------------------|----------------------------|----------------------------|
--L----------------|----------------------------|----------------------------|
--L----------------|----------------------------|----------------------------|
--L----------------|----------------------------|----------------------------|
-------------------|--10p--7-----7--------7-----|--------7-----5h--7--5h--7--|
-------------------|----------0-----0--0-----0--|--0--0-----0----------------|


   E   E  E  E  E  E  E  E     E  E  Q    H         
----------------------------|----------------------|
----------------------------|----------------------|
----------------------------|--------7----9--------|
----------------------------|--------7----9--------|
--10p--7-----7--------7-----|-----7----------------|
----------0-----0--0-----0--|--0-------------------|


   E   E  E  E  E  E  E  E     E  E  E  E  E   E  E   E   
----------------------------|----------------------------|
----------------------------|----------------------------|
----------------------------|----------------------------|
----------------------------|----------------------------|
--10p--7-----7--------7-----|--------7-----5h--7--5h--7--|
----------0-----0--0-----0--|--0--0-----0----------------|


   E   E  E  E  E  E  E  E     E  E  Q    H            E   E  E  E  E  E  Q     
----------------------------|----------------------|---------------------------|
----------------------------|----------------------|---------------------------|
----------------------------|--------7----9--------|---------------------------|
----------------------------|--------7----9--------|-------------9--------9----|
--10p--7-----7--------7-----|-----7----------------|--10p--7-----7--------7----|
----------0-----0--0-----0--|--0-------------------|----------0-----0--0-------|


  H        E   E  E   E      E   E  E  E  E  E  Q       Q    Q    H         
-------------------------|---------------------------|---------------------|
-------------------------|---------------------------|---------------------|
-------------------------|---------------------------|-------7----9--------|
--L--------7S--9--7S--9--|-------------9--------9----|--L----7----9--------|
--L--------5S--7--5S--7--|--10p--7-----7--------7----|--L------------------|
-------------------------|----------0-----0--0-------|---------------------|


   E   E  E  E  E  E  Q       H        E   E  E   E   
---------------------------|-------------------------|
---------------------------|-------------------------|
---------------------------|-------------------------|
-------------9--------9----|--L--------7S--9--7S--9--|
--10p--7-----7--------7----|--L--------5S--7--5S--7--|
----------0-----0--0-------|-------------------------|


   E   E  E  E  E  E  Q       Q    Q    H            E   E  E  E  E  E  Q     
---------------------------|---------------------|---------------------------|
---------------------------|---------------------|---------------------------|
---------------------------|-------7----9--------|---------------------------|
-------------9--------9----|--L----7----9--------|----------------------9----|
--10p--7-----7--------7----|--L------------------|--10p--7-----7--------7----|
----------0-----0--0-------|---------------------|----------0-----0--0-------|


  H        E   E  E   E      E   E  E  E  E  E  Q       Q    Q    H         
-------------------------|---------------------------|---------------------|
-------------------------|---------------------------|---------------------|
-------------------------|---------------------------|-------7----9--------|
--L--------7S--9--7S--9--|-------------9--------9----|--L----7----9--------|
--L--------5S--7--5S--7--|--10p--7-----7--------7----|--L------------------|
-------------------------|----------0-----0--0-------|---------------------|


   E   E  E  E  E  E  Q       H        E   E  E   E   
---------------------------|-------------------------|
---------------------------|-------------------------|
---------------------------|-------------------------|
----------------------9----|--L--------7S--9--7S--9--|
--10p--7-----7--------7----|--L--------5S--7--5S--7--|
----------0-----0--0-------|-------------------------|


   E   E  E  E  E  E  Q       Q    Q    H            E   E  E  E  E  E  Q     
---------------------------|---------------------|---------------------------|
---------------------------|---------------------|---------------------------|
---------------------------|-------7----9--------|---------------------------|
-------------9--------9----|--L----7----9--------|----------------------9----|
--10p--7-----7--------7----|--L------------------|--10p--7-----7--------7----|
----------0-----0--0-------|---------------------|----------0-----0--0-------|


  H        E   E  E   E      E   E  E  E  E  E  Q       Q    Q    H         
-------------------------|---------------------------|---------------------|
-------------------------|---------------------------|---------------------|
-------------------------|---------------------------|-------7----9--------|
--L--------7S--9--7S--9--|-------------9--------9----|--L----7----9--------|
--L--------5S--7--5S--7--|--10p--7-----7--------7----|--L------------------|
-------------------------|----------0-----0--0-------|---------------------|


   E   E  E  E  E  E  Q       H        E   E  E   E   
---------------------------|-------------------------|
---------------------------|-------------------------|
---------------------------|-------------------------|
----------------------9----|--L--------7S--9--7S--9--|
--10p--7-----7--------7----|--L--------5S--7--5S--7--|
----------0-----0--0-------|-------------------------|


   E   E  E  E  E  E  Q       E  E  Q    H            E   E  E  E  E  E  E  E   
---------------------------|----------------------|----------------------------|
---------------------------|----------------------|----------------------------|
---------------------------|--------7----9--------|----------------------------|
-------------9--------9----|--------7----9--------|--10p--7-----7--------7-----|
--10p--7-----7--------7----|-----7----------------|----------0-----0--0-----0--|
----------0-----0--0-------|--0-------------------|----------------------------|


  E  E  E  E  E   E  E   E      E   E  E  E  E  E  E  E   
----------------------------|----------------------------|
----------------------------|----------------------------|
----------------------------|----------------------------|
--------7-----5h--7--5h--7--|--10p--7-----7--------7-----|
--0--0-----0----------------|----------0-----0--0-----0--|
----------------------------|----------------------------|


  E  E  E  E  E   E  E   E      E   E  E  E  E  E  E  E   
----------------------------|----------------------------|
----------------------------|----------------------------|
----------------------------|----------------------------|
--------7-----5h--7--5h--7--|----------------------------|
--0--0-----0----------------|--10p--7-----7--------7-----|
----------------------------|----------0-----0--0-----0--|


  E  E  E  E  E   E  E   E      E   E  E  E  E  E  E  E   
----------------------------|----------------------------|
----------------------------|----------------------------|
----------------------------|----------------------------|
----------------------------|----------------------------|
--------7-----5h--7--5h--7--|--10p--7-----7--------7-----|
--0--0-----0----------------|----------0-----0--0-----0--|


  E  E  E  E  E   E  E   E      E   E  E  E  E  E  E  E   
----------------------------|----------------------------|
----------------------------|----------------------------|
----------------------------|----------------------------|
----------------------------|--10p--7-----7--------7-----|
--------7-----5h--7--5h--7--|----------0-----0--0-----0--|
--0--0-----0----------------|----------------------------|


  E  E  E  E  E   E  E   E      E   E  E  E  E  E  E  E   
----------------------------|----------------------------|
----------------------------|----------------------------|
----------------------------|----------------------------|
--------7-----5h--7--5h--7--|--10p--7-----7--------7-----|
--0--0-----0----------------|----------0-----0--0-----0--|
----------------------------|----------------------------|


  E  E  E  E  E   E  E   E      E   E  E  E  E  E  E  E   
----------------------------|----------------------------|
----------------------------|----------------------------|
----------------------------|----------------------------|
--------7-----5h--7--5h--7--|--10p--7-----7--------7-----|
--0--0-----0----------------|----------0-----0--0-----0--|
----------------------------|----------------------------|


  E  E  E  E  E   E  E   E      W                   W                 
----------------------------|--------------------|-------------------|
----------------------------|--12----------------|--L----------------|
----------------------------|--12----------------|--L----------------|
--------7-----5h--7--5h--7--|--12----------------|--L----------------|
--0--0-----0----------------|--------------------|-------------------|
----------------------------|--------------------|-------------------|


  W                    E   E  E  E  E  E  E  E     E  E  E  E  E   E  E   E   
-------------------|----------------------------|----------------------------|
--L----------------|----------------------------|----------------------------|
--L----------------|----------------------------|----------------------------|
--L----------------|----------------------------|----------------------------|
-------------------|--10p--7-----7--------7-----|--------7-----5h--7--5h--7--|
-------------------|----------0-----0--0-----0--|--0--0-----0----------------|


   E   E  E  E  E  E  E  E     E  E  Q    H         
----------------------------|----------------------|
----------------------------|----------------------|
----------------------------|--------7----9--------|
----------------------------|--------7----9--------|
--10p--7-----7--------7-----|-----7----------------|
----------0-----0--0-----0--|--0-------------------|


   E   E  E  E  E  E  E  E     E  E  E  E  E   E  E   E   
----------------------------|----------------------------|
----------------------------|----------------------------|
----------------------------|----------------------------|
----------------------------|----------------------------|
--10p--7-----7--------7-----|--------7-----5h--7--5h--7--|
----------0-----0--0-----0--|--0--0-----0----------------|


   E   E  E  E  E  E  E  E     E  E  Q    H            E   E  E  E  E  E  Q     
----------------------------|----------------------|---------------------------|
----------------------------|----------------------|---------------------------|
----------------------------|--------7----9--------|---------------------------|
----------------------------|--------7----9--------|-------------9--------9----|
--10p--7-----7--------7-----|-----7----------------|--10p--7-----7--------7----|
----------0-----0--0-----0--|--0-------------------|----------0-----0--0-------|


  H        E   E  E   E      E   E  E  E  E  E  Q       W                 
-------------------------|---------------------------|-------------------|
-------------------------|---------------------------|-------------------|
-------------------------|---------------------------|-------------------|
--L--------7S--9--7S--9--|----------------------9----|--L----------------|
--L--------5S--7--5S--7--|--10p--7-----7--------7----|--L----------------|
-------------------------|----------0-----0--0-------|-------------------|


   E   E  E  E  E  E  Q       H        E   E  E   E   
---------------------------|-------------------------|
---------------------------|-------------------------|
---------------------------|-------------------------|
-------------9--------9----|--L--------7S--9--7S--9--|
--10p--7-----7--------7----|--L--------5S--7--5S--7--|
----------0-----0--0-------|-------------------------|


   E   E  E  E  E  E  Q       W                    E   E  E  E  E  E  Q     
---------------------------|-------------------|---------------------------|
---------------------------|-------------------|---------------------------|
---------------------------|-------------------|---------------------------|
----------------------9----|--L----------------|-------------9--------9----|
--10p--7-----7--------7----|--L----------------|--10p--7-----7--------7----|
----------0-----0--0-------|-------------------|----------0-----0--0-------|


  H        E   E  E   E      E   E  E  E  E  E  Q       W                 
-------------------------|---------------------------|-------------------|
-------------------------|---------------------------|-------------------|
-------------------------|---------------------------|-------------------|
--L--------7S--9--7S--9--|----------------------9----|--L----------------|
--L--------5S--7--5S--7--|--10p--7-----7--------7----|--L----------------|
-------------------------|----------0-----0--0-------|-------------------|


   E   E  E  E  E  E  Q       H        E   E  E   E   
---------------------------|-------------------------|
---------------------------|-------------------------|
---------------------------|-------------------------|
-------------9--------9----|--L--------7S--9--7S--9--|
--10p--7-----7--------7----|--L--------5S--7--5S--7--|
----------0-----0--0-------|-------------------------|


   E   E  E  E  E  E  Q       W                   Q.     E  H         
---------------------------|-------------------|---------------------|
---------------------------|-------------------|---------------------|
---------------------------|-------------------|---------------------|
----------------------9----|--L----------------|---------------------|
--10p--7-----7--------7----|--L----------------|--3------2--L--------|
----------0-----0--0-------|-------------------|---------------------|


  Q.     E  H           Q.     E  H           W                 
---------------------|---------------------|-------------------|
---------------------|---------------------|-------------------|
---------------------|---------------------|-------------------|
---------------------|---------------------|-------------------|
---------------------|---------------------|--5----------------|
--5------3--L--------|--2------0--L--------|-------------------|


  Q.     E  H           Q.     E  H           Q.     Q.     Q     
---------------------|---------------------|---------------------|
---------------------|---------------------|---------------------|
---------------------|---------------------|---------------------|
---------------------|---------------------|---------------------|
--3------2--L--------|---------------------|----------------5----|
---------------------|--5------3--L--------|--2------0-----------|


  W                   Q    E  E  H           W                 
-------------------|----------------------|-------------------|
-------------------|--8----8--7--L--------|-------------------|
-------------------|--7----7--7--L--------|-------------------|
-------------------|--7----7--7--L--------|-------------------|
--L----------------|--5----5--5--L--------|-------------------|
-------------------|----------------------|-------------------|


  W                   W                   W                   W                 
-------------------|-------------------|-------------------|-------------------|
-------------------|-------------------|-------------------|-------------------|
-------------------|-------------------|-------------------|-------------------|
-------------------|-------------------|-------------------|-------------------|
-------------------|-------------------|-------------------|-------------------|
-------------------|-------------------|-------------------|-------------------|


  W                   W                   W                 
-------------------|-------------------|-------------------|
-------------------|-------------------|-------------------|
-------------------|-------------------|-------------------|
-------------------|-------------------|-------------------|
-------------------|-------------------|-------------------|
-------------------|-------------------|-------------------|


   E   E  E  E  E  E  Q       H        E   E  E   E   
---------------------------|-------------------------|
---------------------------|-------------------------|
---------------------------|-------------------------|
---------------------------|-------------------------|
--10p--7-----7--------7----|--L--------5h--7--5h--7--|
----------0-----0--0-------|-------------------------|


   E   E  E  E  E  E  Q       W                    E   E  E  E  E  E  Q     
---------------------------|-------------------|---------------------------|
---------------------------|-------------------|---------------------------|
---------------------------|-------------------|---------------------------|
---------------------------|-------------------|---------------------------|
--10p--7-----7-------------|-------------------|--10p--7-----7--------7----|
----------0-----0--0--0----|--L----------------|----------0-----0--0-------|


  H        E   E  E   E      E   E  E  E  E  E  Q       W                 
-------------------------|---------------------------|-------------------|
-------------------------|---------------------------|-------------------|
-------------------------|---------------------------|-------------------|
-------------------------|---------------------------|-------------------|
--L--------5h--7--5h--7--|--10p--7-----7-------------|-------------------|
-------------------------|----------0-----0--0--0----|--L----------------|


   E   E  E  E  E  E  Q       H        E   E  E   E   
---------------------------|-------------------------|
---------------------------|-------------------------|
---------------------------|-------------------------|
---------------------------|-------------------------|
--10p--7-----7--------7----|--L--------5h--7--5h--7--|
----------0-----0--0-------|-------------------------|


   E   E  E  E  E  E  Q       W                    E   E  E  E  E  E  Q     
---------------------------|-------------------|---------------------------|
---------------------------|-------------------|---------------------------|
---------------------------|-------------------|---------------------------|
---------------------------|-------------------|---------------------------|
--10p--7-----7-------------|-------------------|--10p--7-----7--------7----|
----------0-----0--0--0----|--L----------------|----------0-----0--0-------|


  H        E   E  E   E      E   E  E  E  Q    Q       W                 
-------------------------|--------------------------|-------------------|
-------------------------|--------------------------|-------------------|
-------------------------|---------------------9----|--L----------------|
-------------------------|---------------------9----|--L----------------|
--L--------5h--7--5h--7--|--10p--7-----5-------7----|--L----------------|
-------------------------|--------------------------|-------------------|


   E   E  E  E  E  E  E  E     E  E  E  E  E   E  E   E   
----------------------------|----------------------------|
----------------------------|----------------------------|
----------------------------|----------------------------|
--10p--7-----7--------7-----|--------7-----5h--7--5h--7--|
----------0-----0--0-----0--|--0--0-----0----------------|
----------------------------|----------------------------|


   E   E  E  E  E  E  E  E     E  E  E  E  E   E  E   E   
----------------------------|----------------------------|
----------------------------|----------------------------|
----------------------------|----------------------------|
--10p--7-----7--------7-----|--------7-----5h--7--5h--7--|
----------0-----0--0-----0--|--0--0-----0----------------|
----------------------------|----------------------------|


   E   E  E  E  E  E  E  E     E  E  E  E  E   E  E   E   
----------------------------|----------------------------|
----------------------------|----------------------------|
----------------------------|----------------------------|
----------------------------|----------------------------|
--10p--7-----7--------7-----|--------7-----5h--7--5h--7--|
----------0-----0--0-----0--|--0--0-----0----------------|


   E   E  E  E  E  E  E  E     E  E  E  E  E   E  E   E   
----------------------------|----------------------------|
----------------------------|----------------------------|
----------------------------|----------------------------|
----------------------------|----------------------------|
--10p--7-----7--------7-----|--------7-----5h--7--5h--7--|
----------0-----0--0-----0--|--0--0-----0----------------|


   E   E  E  E  E  E  E  E     E  E  E  E  E   E  E   E   
----------------------------|----------------------------|
----------------------------|----------------------------|
----------------------------|----------------------------|
--10p--7-----7--------7-----|--------7-----5h--7--5h--7--|
----------0-----0--0-----0--|--0--0-----0----------------|
----------------------------|----------------------------|


   E   E  E  E  E  E  E  E     E  E  E  E  E   E  E   E   
----------------------------|----------------------------|
----------------------------|----------------------------|
----------------------------|----------------------------|
--10p--7-----7--------7-----|--------7-----5h--7--5h--7--|
----------0-----0--0-----0--|--0--0-----0----------------|
----------------------------|----------------------------|


   E   E  E  E  E  E  E  E     E  E  E  E  E   E  E   E   
----------------------------|----------------------------|
----------------------------|----------------------------|
----------------------------|----------------------------|
--10p--7-----7--------7-----|--------7-----5h--7--5h--7--|
----------0-----0--0-----0--|--0--0-----0----------------|
----------------------------|----------------------------|


   E   E  E  E  E  E  E  E     E  E  E  E  E   E  E   E      W                 
----------------------------|----------------------------|--------------------|
----------------------------|----------------------------|--------------------|
----------------------------|----------------------------|--12----------------|
--10p--7-----7--------7-----|--------7-----5h--7--5h--7--|--12----------------|
----------0-----0--0-----0--|--0--0-----0----------------|--10----------------|
----------------------------|----------------------------|--------------------|


  W                    W                   W                 
-------------------|--------------------|-------------------|
-------------------|--------------------|-------------------|
--L----------------|--12----------------|--L----------------|
--L----------------|--12----------------|--L----------------|
--L----------------|--10----------------|--L----------------|
-------------------|--------------------|-------------------|


   E   E  E  E  E  E  E  E     E  E  E  E  E   E  E   E   
----------------------------|----------------------------|
----------------------------|----------------------------|
----------------------------|----------------------------|
--10p--7-----7--------7-----|--------7-----5h--7--5h--7--|
----------0-----0--0-----0--|--0--0-----0----------------|
----------------------------|----------------------------|


   E   E  E  E  E  E  E  E     E  E  E  E  E   E  E   E   
----------------------------|----------------------------|
----------------------------|----------------------------|
----------------------------|----------------------------|
--10p--7-----7--------7-----|--------7-----5h--7--5h--7--|
----------0-----0--0-----0--|--0--0-----0----------------|
----------------------------|----------------------------|


   E   E  E  E  E  E  E  E     E  E  E  E  E   E  E   E   
----------------------------|----------------------------|
----------------------------|----------------------------|
----------------------------|----------------------------|
----------------------------|----------------------------|
--10p--7-----7--------7-----|--------7-----5h--7--5h--7--|
----------0-----0--0-----0--|--0--0-----0----------------|


   E   E  E  E  E  E  E  E     E  E  E  E  E   E  E   E   
----------------------------|----------------------------|
----------------------------|----------------------------|
----------------------------|----------------------------|
----------------------------|----------------------------|
--10p--7-----7--------7-----|--------7-----5h--7--5h--7--|
----------0-----0--0-----0--|--0--0-----0----------------|


   E   E  E  E  E  E  E  E     E  E  E  E  E   E  E   E   
----------------------------|----------------------------|
----------------------------|----------------------------|
----------------------------|----------------------------|
--10p--7-----7--------7-----|--------7-----5h--7--5h--7--|
----------0-----0--0-----0--|--0--0-----0----------------|
----------------------------|----------------------------|


   E   E  E  E  E  E  E  E     E  E  E  E  E   E  E   E   
----------------------------|----------------------------|
----------------------------|----------------------------|
----------------------------|----------------------------|
--10p--7-----7--------7-----|--------7-----5h--7--5h--7--|
----------0-----0--0-----0--|--0--0-----0----------------|
----------------------------|----------------------------|


   E   E  E  E  E  E  E  E     E  E  E  E  E   E  E   E   
----------------------------|----------------------------|
----------------------------|----------------------------|
----------------------------|----------------------------|
--10p--7-----7--------7-----|--------7-----5h--7--5h--7--|
----------0-----0--0-----0--|--0--0-----0----------------|
----------------------------|----------------------------|


   E   E  E  E  E  E  E  E     E  E  E  E  E   E  E   E      W                 
----------------------------|----------------------------|--------------------|
----------------------------|----------------------------|--------------------|
----------------------------|----------------------------|--12----------------|
--10p--7-----7--------7-----|--------7-----5h--7--5h--7--|--12----------------|
----------0-----0--0-----0--|--0--0-----0----------------|--10----------------|
----------------------------|----------------------------|--------------------|


  W                    W                   W                 
-------------------|--------------------|-------------------|
-------------------|--------------------|-------------------|
--L----------------|--12----------------|--L----------------|
--L----------------|--12----------------|--L----------------|
--L----------------|--10----------------|--L----------------|
-------------------|--------------------|-------------------|


   E   E  E  E  E  E  E  E     E  E  E  E  E   E  E   E   
----------------------------|----------------------------|
----------------------------|----------------------------|
----------------------------|----------------------------|
--10p--7-----7--------7-----|--------7-----5h--7--5h--7--|
----------0-----0--0-----0--|--0--0-----0----------------|
----------------------------|----------------------------|


   E   E  E  E  E  E  E  E     E  E  E  E  E   E  E   E   
----------------------------|----------------------------|
----------------------------|----------------------------|
----------------------------|----------------------------|
--10p--7-----7--------7-----|--------7-----5h--7--5h--7--|
----------0-----0--0-----0--|--0--0-----0----------------|
----------------------------|----------------------------|


   E   E  E  E  E  E  E  E     E  E  E  E  E   E  E   E   
----------------------------|----------------------------|
----------------------------|----------------------------|
----------------------------|----------------------------|
----------------------------|----------------------------|
--10p--7-----7--------7-----|--------7-----5h--7--5h--7--|
----------0-----0--0-----0--|--0--0-----0----------------|


   E   E  E  E  E  E  E  E     E  E  E  E  E   E  E   E   
----------------------------|----------------------------|
----------------------------|----------------------------|
----------------------------|----------------------------|
----------------------------|----------------------------|
--10p--7-----7--------7-----|--------7-----5h--7--5h--7--|
----------0-----0--0-----0--|--0--0-----0----------------|


   E   E  E  E  E  E  E  E     E  E  E  E  E   E  E   E   
----------------------------|----------------------------|
----------------------------|----------------------------|
----------------------------|----------------------------|
--10p--7-----7--------7-----|--------7-----5h--7--5h--7--|
----------0-----0--0-----0--|--0--0-----0----------------|
----------------------------|----------------------------|


   E   E  E  E  E  E  E  E     E  E  E  E  E   E  E   E   
----------------------------|----------------------------|
----------------------------|----------------------------|
----------------------------|----------------------------|
--10p--7-----7--------7-----|--------7-----5h--7--5h--7--|
----------0-----0--0-----0--|--0--0-----0----------------|
----------------------------|----------------------------|


   E   E  E  E  E  E  E  E     E  E  E  E  E   E  E   E   
----------------------------|----------------------------|
----------------------------|----------------------------|
----------------------------|----------------------------|
--10p--7-----7--------7-----|--------7-----5h--7--5h--7--|
----------0-----0--0-----0--|--0--0-----0----------------|
----------------------------|----------------------------|


   E   E  E  E  E  E  E  E     E  E  E  E  E   E  E   E      W                 
----------------------------|----------------------------|--------------------|
----------------------------|----------------------------|--------------------|
----------------------------|----------------------------|--12----------------|
--10p--7-----7--------7-----|--------7-----5h--7--5h--7--|--12----------------|
----------0-----0--0-----0--|--0--0-----0----------------|--10----------------|
----------------------------|----------------------------|--------------------|


  W                    W                   W                  
-------------------|--------------------|-------------------||
-------------------|--------------------|-------------------||
--L----------------|--12----------------|--L----------------||
--L----------------|--12----------------|--L----------------||
--L----------------|--10----------------|--L----------------||
-------------------|--------------------|-------------------||










Guitar 2:



     W                   W                   W                 
E||-------------------|-------------------|-------------------|
B||-------------------|-------------------|-------------------|
G||-------------------|-------------------|-------------------|
D||-------------------|-------------------|-------------------|
A||-------------------|-------------------|-------------------|
E||-------------------|-------------------|-------------------|


  W                   W                   W                   W                 
-------------------|-------------------|-------------------|-------------------|
-------------------|-------------------|-------------------|-------------------|
-------------------|-------------------|-------------------|-------------------|
-------------------|-------------------|-------------------|-------------------|
-------------------|-------------------|-------------------|-------------------|
-------------------|-------------------|-------------------|-------------------|


  W                   E  E  E  E  E  Q.        H        E  E  E  E   
-------------------|--8--5-----8--5---------|-----------------------|
-------------------|--------6--------6------|--L--------5--6--5-----|
-------------------|------------------------|--------------------7--|
-------------------|------------------------|-----------------------|
-------------------|------------------------|-----------------------|
-------------------|------------------------|-----------------------|


  E  E  E  E  E  E  E  E     E  E  E  E   Q     Q        W                 
--------------------------|---------------------------|-------------------|
--5-----------------------|---------------------------|-------------------|
-----7--5-----5-----------|---------------------------|-------------------|
-----------7-----7--5-----|--5--7--5------------------|-------------------|
-----------------------8--|-----------8S--L----(x)----|-------------------|
--------------------------|---------------------------|-------------------|


  H        Q    E   E     W                   W                 
-----------------------|-------------------|-------------------|
-----------------------|-------------------|-------------------|
-----------------------|-------------------|-------------------|
-----------------------|-------------------|-------------------|
-----------------------|-------------------|-------------------|
----------------1S--3--|--3----------------|--L----------------|


  W                   W                   W                   W                 
-------------------|-------------------|-------------------|-------------------|
-------------------|-------------------|-------------------|-------------------|
-------------------|-------------------|-------------------|-------------------|
-------------------|-------------------|-------------------|-------------------|
-------------------|-------------------|-------------------|-------------------|
-------------------|-------------------|-------------------|-------------------|


  W                   W                   W                   W                 
-------------------|-------------------|-------------------|-------------------|
-------------------|-------------------|-------------------|-------------------|
-------------------|-------------------|-------------------|-------------------|
-------------------|-------------------|-------------------|-------------------|
-------------------|-------------------|-------------------|-------------------|
-------------------|-------------------|-------------------|-------------------|


  W                   W                   W                   W                 
-------------------|-------------------|-------------------|-------------------|
-------------------|-------------------|-------------------|-------------------|
-------------------|-------------------|-------------------|-------------------|
-------------------|-------------------|-------------------|-------------------|
-------------------|-------------------|-------------------|-------------------|
-------------------|-------------------|-------------------|-------------------|


  W                   W                   W                   W                 
-------------------|-------------------|-------------------|-------------------|
-------------------|-------------------|-------------------|-------------------|
-------------------|-------------------|-------------------|-------------------|
-------------------|-------------------|-------------------|-------------------|
-------------------|-------------------|-------------------|-------------------|
-------------------|-------------------|-------------------|-------------------|


  W                   W                   W                   W                 
-------------------|-------------------|-------------------|-------------------|
-------------------|-------------------|-------------------|-------------------|
-------------------|-------------------|-------------------|-------------------|
-------------------|-------------------|-------------------|-------------------|
-------------------|-------------------|-------------------|-------------------|
-------------------|-------------------|-------------------|-------------------|


  W                   W                   W                   W                 
-------------------|-------------------|-------------------|-------------------|
-------------------|-------------------|-------------------|-------------------|
-------------------|-------------------|-------------------|-------------------|
-------------------|-------------------|-------------------|-------------------|
-------------------|-------------------|-------------------|-------------------|
-------------------|-------------------|-------------------|-------------------|


  W                   W                   W                   W                 
-------------------|-------------------|-------------------|-------------------|
-------------------|-------------------|-------------------|-------------------|
-------------------|-------------------|-------------------|-------------------|
-------------------|-------------------|-------------------|-------------------|
-------------------|-------------------|-------------------|-------------------|
-------------------|-------------------|-------------------|-------------------|


  W                   W                   W                   W                 
-------------------|-------------------|-------------------|-------------------|
-------------------|-------------------|-------------------|-------------------|
-------------------|-------------------|-------------------|-------------------|
-------------------|-------------------|-------------------|-------------------|
-------------------|-------------------|-------------------|-------------------|
-------------------|-------------------|-------------------|-------------------|


  W                   W                   W                   W                 
-------------------|-------------------|-------------------|-------------------|
-------------------|-------------------|-------------------|-------------------|
-------------------|-------------------|-------------------|-------------------|
-------------------|-------------------|-------------------|-------------------|
-------------------|-------------------|-------------------|-------------------|
-------------------|-------------------|-------------------|-------------------|


  W                   W                   W                   W                 
-------------------|-------------------|-------------------|-------------------|
-------------------|-------------------|-------------------|-------------------|
-------------------|-------------------|-------------------|-------------------|
-------------------|-------------------|-------------------|-------------------|
-------------------|-------------------|-------------------|-------------------|
-------------------|-------------------|-------------------|-------------------|


  W                   W                   W                   W                 
-------------------|-------------------|-------------------|-------------------|
-------------------|-------------------|-------------------|-------------------|
-------------------|-------------------|-------------------|-------------------|
-------------------|-------------------|-------------------|-------------------|
-------------------|-------------------|-------------------|-------------------|
-------------------|-------------------|-------------------|-------------------|


  W                   W                   W                   W                 
-------------------|-------------------|-------------------|-------------------|
-------------------|-------------------|-------------------|-------------------|
-------------------|-------------------|-------------------|-------------------|
-------------------|-------------------|-------------------|-------------------|
-------------------|-------------------|-------------------|-------------------|
-------------------|-------------------|-------------------|-------------------|


  W                   W                   W                   W                 
-------------------|-------------------|-------------------|-------------------|
-------------------|-------------------|-------------------|-------------------|
-------------------|-------------------|-------------------|-------------------|
-------------------|-------------------|-------------------|-------------------|
-------------------|-------------------|-------------------|-------------------|
-------------------|-------------------|-------------------|-------------------|


  W                   W                   W                   W                 
-------------------|-------------------|-------------------|-------------------|
-------------------|-------------------|-------------------|-------------------|
-------------------|-------------------|-------------------|-------------------|
-------------------|-------------------|-------------------|-------------------|
-------------------|-------------------|-------------------|-------------------|
-------------------|-------------------|-------------------|-------------------|


  W                   W                   W                   W                 
-------------------|-------------------|-------------------|-------------------|
-------------------|-------------------|-------------------|-------------------|
-------------------|-------------------|-------------------|-------------------|
-------------------|-------------------|-------------------|-------------------|
-------------------|-------------------|-------------------|-------------------|
-------------------|-------------------|-------------------|-------------------|


  W                   W                   W                   W                 
-------------------|-------------------|-------------------|-------------------|
-------------------|-------------------|-------------------|-------------------|
-------------------|-------------------|-------------------|-------------------|
-------------------|-------------------|-------------------|-------------------|
-------------------|-------------------|-------------------|-------------------|
-------------------|-------------------|-------------------|-------------------|


  W                   W                   W                   W                 
-------------------|-------------------|-------------------|-------------------|
-------------------|-------------------|-------------------|-------------------|
-------------------|-------------------|-------------------|-------------------|
-------------------|-------------------|-------------------|-------------------|
-------------------|-------------------|-------------------|-------------------|
-------------------|-------------------|-------------------|-------------------|


  W                   W                   W                   W                 
-------------------|-------------------|-------------------|-------------------|
-------------------|-------------------|-------------------|-------------------|
-------------------|-------------------|-------------------|-------------------|
-------------------|-------------------|-------------------|-------------------|
-------------------|-------------------|-------------------|-------------------|
-------------------|-------------------|-------------------|-------------------|


  W                   W                   W                   W                 
-------------------|-------------------|-------------------|-------------------|
-------------------|-------------------|-------------------|-------------------|
-------------------|-------------------|-------------------|-------------------|
-------------------|-------------------|-------------------|-------------------|
-------------------|-------------------|-------------------|-------------------|
-------------------|-------------------|-------------------|-------------------|


  W                   W                   W                   W                 
-------------------|-------------------|-------------------|-------------------|
-------------------|-------------------|-------------------|-------------------|
-------------------|-------------------|-------------------|-------------------|
-------------------|-------------------|-------------------|-------------------|
-------------------|-------------------|-------------------|-------------------|
-------------------|-------------------|-------------------|-------------------|


  W                   W                   W                   W                 
-------------------|-------------------|-------------------|-------------------|
-------------------|-------------------|-------------------|-------------------|
-------------------|-------------------|-------------------|-------------------|
-------------------|-------------------|-------------------|-------------------|
-------------------|-------------------|-------------------|-------------------|
-------------------|-------------------|-------------------|-------------------|


  W                   W                   W                   W                 
-------------------|-------------------|-------------------|-------------------|
-------------------|-------------------|-------------------|-------------------|
-------------------|-------------------|-------------------|-------------------|
-------------------|-------------------|-------------------|-------------------|
-------------------|-------------------|-------------------|-------------------|
-------------------|-------------------|-------------------|-------------------|


  W                   W                   W                   W                 
-------------------|-------------------|-------------------|-------------------|
-------------------|-------------------|-------------------|-------------------|
-------------------|-------------------|-------------------|-------------------|
-------------------|-------------------|-------------------|-------------------|
-------------------|-------------------|-------------------|-------------------|
-------------------|-------------------|-------------------|-------------------|


  W                   W                   W                   W                 
-------------------|-------------------|-------------------|-------------------|
-------------------|-------------------|-------------------|-------------------|
-------------------|-------------------|-------------------|-------------------|
-------------------|-------------------|-------------------|-------------------|
-------------------|-------------------|-------------------|-------------------|
-------------------|-------------------|-------------------|-------------------|


  W                   W                   W                   W                 
-------------------|-------------------|-------------------|-------------------|
-------------------|-------------------|-------------------|-------------------|
-------------------|-------------------|-------------------|-------------------|
-------------------|-------------------|-------------------|-------------------|
-------------------|-------------------|-------------------|-------------------|
-------------------|-------------------|-------------------|-------------------|


  W                   W                   W                   W                 
-------------------|-------------------|-------------------|-------------------|
-------------------|-------------------|-------------------|-------------------|
-------------------|-------------------|-------------------|-------------------|
-------------------|-------------------|-------------------|-------------------|
-------------------|-------------------|-------------------|-------------------|
-------------------|-------------------|-------------------|-------------------|


  W                   W                   W                   W                 
-------------------|-------------------|-------------------|-------------------|
-------------------|-------------------|-------------------|-------------------|
-------------------|-------------------|-------------------|-------------------|
-------------------|-------------------|-------------------|-------------------|
-------------------|-------------------|-------------------|-------------------|
-------------------|-------------------|-------------------|-------------------|


  W                   W                   E  E   Q    Q    E  E   
-------------------|-------------------|--0-----------0----0-----|
-------------------|-------------------|-----3S--5------------3--|
-------------------|-------------------|-------------------------|
-------------------|-------------------|-------------------------|
-------------------|-------------------|-------------------------|
-------------------|-------------------|-------------------------|


  E  E  E  E  S S S S E  E      Q    H.            
-----0-----------------------|--------------------|
--L-----0--------------------|--------------------|
-----------0--2-3-2-0-2--0~--|--L----L------------|
-----------------------------|--------------------|
-----------------------------|--------------------|
-----------------------------|--------------------|


         |--3--|                                                
  E  S S E  E  E  E  E  E  S S    S S S S S S S S S S E  E  E   
-------------------------------|-------------------------------|
-------------------------------|-------------------------------|
--0------------------0---------|----------------------0--------|
-----0-2-0--2--0--2-----0------|-------------------------0--2--|
---------------------------0-2-|--0-2-0-2-0-2-0-2-0-2----------|
-------------------------------|-------------------------------|


  E  E  E  E  Q    E  E     E  Q    Q    Q.        H        E  E  S S E   
-------------------------|----------------------|-----------0--0--0------|
-------------------------|----------------------|-------------------0----|
-------------------------|-----0----------------|---------------------0--|
--L--0--2--0--2----0--0--|--2-------2----L------|--L---------------------|
-------------------------|----------------------|------------------------|
-------------------------|----------------------|------------------------|


  E  E  Q    Q.     E     E  E  E  E  E  E  E  E     E  E  E  E  E  E  E  E     
-----------------------|--------------------------|-----------------0----------|
-----------------------|--------------------------|-----0-----3-----------3b~--|
--------0--------------|-----------0-----2-----2--|----------------------------|
-----2-------2------0--|-----2--------------------|----------------------------|
-----------------------|--------------------------|----------------------------|
--0--------------------|--------------------------|----------------------------|


                              |-3-|             |-3-|  
  H.           E  E     E  E  S S S E  E  E  E  S S S  
------------------0--|--L-----0-2-0----0--0-----2-3-2-|
--L------------L-----|-----0--------3--------0--------|
---------------------|--------------------------------|
---------------------|--------------------------------|
---------------------|--------------------------------|
--------
less
plus
Add to Songbook Print Version How to play lesson Submit videolesson
Click the best TAGS for this song:
None of them
Contributor: domiholy Correct

If you can not find the chords or tabs you want, look at our partner E-chords. If you are a premium member, you have total access to our video lessons.

If you find a wrong Bad To Me from Deep Purple, click the correct button above.

login/signup
my songbooks
my recent views
my submits