Deep Purple

No One Came tab

Deep Purple

tools Ultimate Tabs

Start AutoScroll Font Size Down Font Size Up

Find us on Facebook

chords
tabs
bass
ukulele
keyboards
drums
flute
harmonica
guitar pro video
Ultimate-Tabs

No One Came

No One Came ("Live At The Olympia 96" version)
(Blackmore/Gillan/Glover/Lord/Paice)
From "Fireball", 1971
intro bass (open E string is played by bass except noted)
e|--------------------------------------------------------------|
B|-----------------------------------5--------------------------|
G|-----------------------------------7--------------------------|
D|-----------------------------------6--------------------------|
A|-----------------------------------7--------------------------|
E|-0-0-0-0-0-0-0-0-0-0-0-0-0-0-0-0---0--------------------------|

Maybe it's because I'm only starting
e|--------------------------------------0-----------------------|
B|-----------------------------------5--5-----------------------|
G|-----------------------------------7--7-----------------------|
D|-----------------------------------6--6-----------------------|
A|-----------------------------------7--7-----------------------|
E|-0-0-0-0-0-0-0-0-0-0-0-0-0-0-0-0---0--------------------------|


That I think it won't take too long
e|--------------------------------------0-----------------------|
B|-----------------------------------5--5-----------------------|
G|-----------------------------------7--7-----------------------|
D|-----------------------------------6--6-----------------------|
A|-----------------------------------7--7-----------------------|
E|-0-0-0-0-0-0-0-0-0-0-0-0-0-0-0-0---0--------------------------|


Maybe it's because I can see you laughing ......you've got it wrong
e|----------------------------------------------------------------|
B|----------------------------------------------------------------|
G|----------------------------------------------------------------|
D|--------------------------------------------------------2~~-----|
A|-----------------------------------4-5-4-5--------------2~~-----|
E|-0-0-0-0-0-0-0-0-0-0-0-0-0-0-0-0-------------4-5-4-5----0~~-----|


Maybe I could be like Robin Hood
e|--------------------------------------------------------------|
B|-----------------------------------5--5-----------------------|
G|-----------------------------------7--7-----------------------|
D|-----------------------------------6--6-----------------------|
A|-----------------------------------7--7-----------------------|
E|-0-0-0-0-0-0-0-0-0-0-0-0-0-0-0-0---0--0-----------------------|

Like and outlaw dressed all in green
e|--------------------------------------------------------------|
B|-----------------------------------5--5-----------------------|
G|-----------------------------------7--7-----------------------|
D|-----------------------------------6--6-----------------------|
A|-----------------------------------7--7-----------------------|
E|-0-0-0-0-0-0-0-0-0-0-0-0-0-0-0-0---0--------------------------|

Someone said what's he gonna turn out........else said never mind
e|----------------------------------------------------------------|
B|----------------------------------------------------------------|
G|----------------------------------------------------------------|
D|--------------------------------------------------------2vvvv---|
A|-----------------------------------4-5-4-5--------------2vvvv---|
E|-0-0-0-0-0-0-0-0-0-0-0-0-0-0-0-0-------------4-5-4-5----0vvvv---|

Well I was big and bold and more than twice as old
e|--------------------------------------------------------------|
B|--------------------------------------------------------------|
G|-----x-----------------------x--x-----------------------------|
D|---x-x-x---------4~~~--------x--x----------4~-----------------|
A|---x---x---2h4~~----------x--x--x--2h3h4~~--------------------|
E|--------------------------x-----------------------------------|

As all the cats I'd ever seen
e|--------------------------------------------------------------|
B|--------------------------------------------------------------|
G|-----x--------------------------x-----------------------------|
D|---x-x-x---------4~~~--------x--x----------4~-----------------|
A|---x---x---2h4~~----------x--x--x--2h3h4~~--------------------|
E|---c----------------------x-----------------------------------|


I grew my hair and bought a suit of shiny white or was it cream
e|--------------------------------------------------------------|
B|--------------------------------------------------------------|
G|-----x-----------------------x--x-----------------------------|
D|---x-x-x---------4~~~--------x--x----------4~-----------------|
A|---x---x---2h4~~----------x--x--x--2h3h4~~--------------------|
E|--------------------------x-----------------------------------|

I shook and shivered danced and quivered And stood on a mountain top
e|--------------------------------------------------------------|
B|--------------------------------------------------------------|
G|-----x--------------------------x-----------------------------|
D|---x-x-x---------4~~~--------x--x----------4~-----------------|
A|---x---x---2h4~~----------x--x--x--2h3h4~~--------------------|
E|---c----------------------x-----------------------------------|

No one came from miles around and said Man your music is really hot
e|--------------------------------------------------------------|
B|---------------------------------------------7b9--------------|
G|--------------------------------------------7-----------------|
D|-------------------------------------------7------------------|
A|-------7-5-7-5-7-5-7--9b10rb9---5~~--7~~~---------------------|
E|---/5~--------------------------------------------------------|
AH ....

And said man your music is really funky......eaow.....
e|------------------------------------------12------------------|
B|-----------------------------------------7--------------------|
G|----------------------------------------7---------------------|
D|---------------------------------------7---------0---0--------|
A|----------------7-5-7-5-7-5-7--9b10rb9----------4---2--2~s7~--|
E|-----------/5~---------------------------------5---3---0~-----|
AH ....

solo 1:58 (brigde pickup)
e|--------------------------------------------------------------|
B|--------------------------------------------------------------|
G|---14b16-14b16-14b16---14b16rb14p12~--12-14b16~~----|
D|--------------------------------------------14----------------|
A|--------------------------------------------------------------|
E|--------------------------------------------------------------|


e|--------------------------------------------------------------|
B|--------------------------------------------------------------|
G|--14b16~~rb14p12--12~~----------------------------------------|
D|----------------14----14~p12h14-------------------------------|
A|-------------------------------14-13-12-10~~~-----------------|
E|--------------------------------------------------------------|

2:04
e|-------------------------------------------------------------------|
B|-------------------------------------------------------------------|
G|--------------------12----12--------12-13-14-13-12---------------|
D|---------------12-14--14----12-13-14--------------14-11h12p11----|
A|-/10~-/12-13-14------------------------------------------------12~-|
E|-------------------------------------------------------------------|

e|--------------------------------------|
B|--------------------------------------|
G|--6b7rb6b7rb6-----------------------|
D|---------------6b7rb6b7rb6----------|
A|-----------------------------7~~----|
E|--------------------------------------|

switch to
neck pickup 2:13
e|-------------------------------------------------------------|
B|-----------------------------------------------12-13-14------|
G|---------------------------17b19~rb17b19~~---14--------------|
D|------------------17-18-19-----------------------------------|
A|----------17-18-19-------------------------------------------|
E|--/17-18-19--------------------------------------------------|

e|------------------------------------------------------|
B|---9-10-11--7-8-9----7-8------------------------------|
G|-12--------9------7-9---------------------------------|
D|--------------------------------x-----5~-----5-5~-----|
A|------------------------5s7~~-x-x-5-7~---7-5----------|
E|------------------------------x-----------------------|

e|------------------------------------------------------------|
B|-------------------------------------------13-12------------|
G|--16-18-19-20--15-17-18-19--14-15-16-17--14-----16~---------|
D|------------------------------------------------------------|
A|------------------------------------------------------------|
E|------------------------------------------------------------|

e|--------------------------------------------|
B|------------------------------12-14-15b17~--|
G|----------------------12-13-14--------------|
D|--------------12-13-14----------------------|
A|------12-13-14------------------------------| hammond solo
E|-12-15--------------------------------------|

second solo around 4:00
e|--------------------------------------------------------------|
B|--------------------------------------------------------------|
G|--------------------------------------------------------------|
D|--------------------------------------------------------------|
A|--feedback-7~~~~~~~~~~~~~~~~~~~~----4b5~~~~~~~~~~~rb4-2h4p2---|
E|-----------------------------------------------------------5--|

e|--------------------------------------------------------------|
B|--------------------------------------------------------------|
G|---------------------------------------7~~~~-feedback---------|
D|----------------------------feedback-E------------------------|
A|-----2-2~~~~~-/6s7s9~~~~~~~-----------------------------------|
E|--4-5-5-------------------------------------------------------|


e|-----------I----I----------I-Dive----|I
B|-----------I----I----------I-with----|I
G|-----------I----I----------I-bar-----|I 2 times
D|--14-13-12-I-3X-I-14-13-12-I-1-------| step-I
A|-----------I----I----------I-3X------|I
E|-----------I----I----------I---------|I

e|-----------------------|
B|---------17-feedback~~-|
G|--14b16~~rb12----------|
D|-------------14~~------|
A|-----------------------|
E|-----------------------|

e|-----------I----I-----------|I
B|-----------I----I-----------|I repeat
G|-----------I----I-----------|I 2 times
D|--14-13-12-I-3X-I-14-13-12--|I but with
A|-----------I----I-----------|I wider vibrato
E|-----------I----I-----------|I up to 1.5 step or tone


e|--------------------------------------------------------------------|
B|-----------------------------------------------------------------9--|
G|--------------------------0--------------------------------------9--|
D|----------------------0--2-------------------------0---0-2~~-----9--|
A|---5-4-5-4-----------2--3-------5-4-5-4-----------2---0--2~~s7~~-7--|
E|-----------5-4-5-4--3-------------------5-4-5-4--3---2---0~~--------|

~ finger vibrato
v vibrato with bar
h hammer-on
p pull-off
AH harmonics created by touching the string octave higher than noted
12 pinched harmonics
less
plus
Add to Songbook Print Version How to play lesson Submit videolesson
Click the best TAGS for this song:
None of them
Contributor: delijazz Correct

If you can not find the chords or tabs you want, look at our partner E-chords. If you are a premium member, you have total access to our video lessons.

If you find a wrong Bad To Me from Deep Purple, click the correct button above.

login/signup
my songbooks
my recent views
my submits