Deep Purple

Soldier Of Fortune tab

Deep Purple

Album:Last Concert in Japan

Year:1977

tools Ultimate Tabs

Start AutoScroll Font Size Down Font Size Up

Find us on Facebook

Ultimate-Tabs

Soldier Of Fortune

Deep Purple ? Soldier of Fortune Intro and Solo 
 
Intro 
 
|--------3-5-6/10--8h-10p8--|--------------------------------|-------------------| 
|------3--------------------|-11-10-8h-10p8--13--------------|-------------------| 
|----3----------------------|------------------15-14p-12h14--|--9/12---15p14--12-| 
|--5------------------------|--------------------------------|-------------------| 
|---------------------------|--------------------------------|-------------------| 
|---------------------------|--------------------------------|-------------------| 
 
Solo 
 
|------------------------|----------------------|--10-13-13b15--13b15--|---------------| 
|------------------------|-8--11-11b13--11b13---|----------------------|--13b15--11-13-| 
|--4/7--10-10b12--10b12--|----------------------|----------------------|---------------| 
|------------------------|----------------------|----------------------|---------------| 
|------------------------|----------------------|----------------------|---------------| 
|------------------------|----------------------|----------------------|---------------| 
 
|--10-13-13b15--13b15--|--------------------------|---------------|------------------| 
|----------------------|--13b15--11-13b15--13b15--|--13b15--11-13-|--11p10--11p10--8-| 
|----------------------|--------------------------|---------------|------------------| 
|----------------------|--------------------------|---------------|------------------| 
|----------------------|--------------------------|---------------|------------------| 
|----------------------|--------------------------|---------------|------------------| 
 
 
less
plus
Add to Songbook Print Version How to play lesson Submit videolesson
Click the best TAGS for this song:
None of them
Contributor: lilcmuzo Correct

If you can not find the chords or tabs you want, look at our partner E-chords. If you are a premium member, you have total access to our video lessons.

If you find a wrong Bad To Me from Deep Purple, click the correct button above.

login/signup
my songbooks
my recent views
my submits