Deep Purple

Sometimes a Feel Like Screaming tab

Deep Purple

tools Ultimate Tabs

Start AutoScroll Font Size Down Font Size Up

Find us on Facebook

chords
tabs
bass
ukulele
keyboards
drums
flute
harmonica
guitar pro
video
Ultimate-Tabs

Sometimes a Feel Like Screaming

Gtr I (E A D G B E) - 'Guitarra Limpa'
Gtr II (E A D G B E) - 'Distorção'
Gtr III (E A D G B E) - 'Harmônicos'

Beat:  Moderately Slow Rock Q=100
Pulso: 4/4

  Essa música do Deep Purple é estupenda, porém, pra toca-la exatamente igual
é muito dificil, devido a técnicas perfeitas de Harmônicos Artificiais
do Guitarrista Steve Morse, que será representada pela Guitarra III, 
ou seja, toda vez, que esta guitarra aparecer deve se tocar todas as Notas
como Harmônicos Artificiais...
  Cuidado com as palhetas alternadas, que devem ser muito rápidas e precisas...
Trabalhe duro... Divirta-se... 


 Gtr I
|-------------------|------------------|---------------------|---------3-----|
|-----5-6-(6)-------|------------------|---------------------|---------3-----|
|-------------------|-----/9-5-(5)-----|---------------------|---------0-----|
|---7---------5h7p5-|-(5)----------5-3-|-(3)-/7-5-(5)--3p2p0-|-(0)-----------|
|-5-----------------|------------------|---------------------|---------------|
|-------------------|------------------|---------------------|---------------|


|---------------------|-----------------------|-----------------------|--------|
|-----5-6-(6)---------|-----------------------|---------------------3-|-(3)----|
|---------------------|-------/9-5-(5)--------|------------------/7---|--------|
|---7-----------5h7p5-|-(5)--------------/7-3-|-(3)---/7-5-(5)-5------|--------|
|-5-----------8-------|-----7----------7------|-----5-----------------|--------|
|---------------------|-----------------------|-----------------------|--------|


|-5--5-5-5-(5)-5-5-3--|-(3)--1--0--0--|-5--5-5-5-(5)-5-5-3--|-(3)--1--0---|
|-3--3-3-3-(3)-3-3-3--|-(3)--3--3--3--|-3--3-3-3-(3)-3-3-3--|-(3)--3--3---|
|-2--2-2-3-(3)-3-3-3--|-(3)--2--2--2--|-2--2-2-3-(3)-3-3-3--|-(3)--2--2---|
|---------------------|---------------|---------------------|-------------|
|---------------------|---------------|---------------------|-------------|
|---------------------|---------------|---------------------|-------------|


  Gtr II
                                         |-3-|
|---------------------|--------------------------|
|-----5-6-(6)---------|--------------------------|
|---------------------|-------/9-5-(5)-----------|
|---7-----------5h7p5-|-(5)--------------5h7p5-3-|
|-5-----------8-------|-----7----------7---------|
|---------------------|--------------------------|


 ~~~~~        ~~~
  +E  E  E E +E  E S S E   W
|------------------------|-3----|
|------------------------|-3----|
|------------------------|-0----|
|-(3)---/7-5-(5)-0-3p2p0-|------|
|-----5------------------|------|
|------------------------|------|


  Gtr I
|-5--5-5-5-(5)-5-5-3--|-(3)--1--0--0--|-5--5-5-5-(5)-5-5-3--|-(3)--1--0---|
|-3--3-3-3-(3)-3-3-3--|-(3)--3--3--3--|-3--3-3-3-(3)-3-3-3--|-(3)--3--3---|
|-2--2-2-3-(3)-3-3-3--|-(3)--2--2--2--|-2--2-2-3-(3)-3-3-3--|-(3)--2--2---|
|---------------------|---------------|---------------------|-------------|
|---------------------|---------------|---------------------|-------------|
|---------------------|---------------|---------------------|-------------|


  1.
  Gtr III
      ~~~~~~  ~~~~~~~~~~     ~~~~~~   ~~~
|-----------------|---------------------|
|---5-6-(6)-------|---------------------|
|-----------------|------7b9-5-(5)------|
|-----------7-5---|-(5)-------------5-3-|
|-7---------------|---------------------|
|-----------------|---------------------|


 ~~~~~        ~~~            ~~~~~~~   ~~~
|-------------------------|--------------------|
|-------------------------|--------------------|
|-------------------------|---------------5-7--|
|-(3)--5b7r5-(5)----------|---------5-(5)------|
|-----------------7b8r7-5-|-(5)-(5)------------|
|-------------------------|--------------------|


        ~~~~~~          ~~~      ~~~~~~     ~~~
|--------------------|------------------------|
|-----5-6-(6)--------|------------------------|
|--------------------|-------7b9-5-(5)--------|
|-7-------------/7-5-|-(5)-5-------------/7-3-|
|---7---------8------|-----------------7------|
|--------------------|------------------------|


                            Gtr II
 ~~~~~                  ~~~~~~~~~~
|--------------------|--------/15-14-13---|
|------------------3-|-(3)----------------|
|---------------/7---|--------------------|
|-(3)---/7-5-5/------|--------------------|
|-----5--------------|--------------------|
|--------------------|--------------------|


             ~~~~~~                ~~~~~~
|---------------------|---------------------|
|---------------------|---------------------|
|---------------------|------------5-(5)----|
|------------3-(3)----|------------5-(5)----|
|---------------------|------------3-(3)----|
|-1--1-1-1-1----------|-1--1-1-1-1----------|


|---------------------|---------------------|
|---------------------|---------------------|
|------------1-(1)----|------------8-(8)----|
|------------3-(3)----|------------8-(8)----|
|------------4-(4)----|------------6-(6)----|
|-4--4-4-4-4----------|-4--4-4-4-4----------|


  2.
  Gtr I
|-1------------|----------------|----------------|-3----|
|-3----3-(3)---|------1-(1)-----|----------------|-3----|
|-2----3-(3)---|-0----2-(2)---3-|-(3)---0-(0)----|-0----|
|-0----3-(3)---|-2----2-(2)---3-|-(3)---2-(2)----|-0----|
|------1-(1)---|-3----0-(0)---1-|-(1)---3-(3)----|-2----|
|--------------|----------------|----------------|-3----|


|-5--5-5-5-(5)-5-5-3--|-(3)--1--0--0--|-5--5-5-5-(5)-5-5-3--|-(3)--1--0---|
|-3--3-3-3-(3)-3-3-3--|-(3)--3--3--3--|-3--3-3-3-(3)-3-3-3--|-(3)--3--3---|
|-2--2-2-3-(3)-3-3-3--|-(3)--2--2--2--|-2--2-2-3-(3)-3-3-3--|-(3)--2--2---|
|---------------------|------------0--|---------------------|-------------|
|---------------------|---------------|---------------------|-------------|
|---------------------|---------------|---------------------|-------------|


  Gtr III
      ~~~~~~               ~~~~~~
|----------------|--------------------|
|---5-6-(6)------|--------------------|
|----------------|-----7b9-5-(5)------|
|-----------7--5-|-(5)-----------5--3-|
|-7--------------|--------------------|
|----------------|--------------------|


          ~~~~~~       ~~~~~~~~     ~   ~
|------------------------|---------------------|
|------------------------|---------------------|
|------------------------|--------5-4---7-4----|
|-(3)-5b7r5-(5)----------|------5-----5--------|
|----------------7b8r7-5-|-(5)-----------------|
|------------------------|---------------------|


        ~~~~~~     ~~~~~~~~     ~~~~~~     ~~~
|--------------------|-----------------------|
|-----5-6-(6)--------|-----------------------|
|--------------------|-------/9-5-(5)--------|
|---7-----------/7-5-|-(5)--------------/7-3-|
|-5-----------8------|-----7----------7------|
|--------------------|-----------------------|


 ~~~~~      ~~~~~~           ~~~   ~~~
|-------------------------|--------------||---
|-------------------5b6r5-|-(5)----------||o--
|-------5b7-5-(5)---------|--------------||---
|-(3)-------------5-------|-----5-(5)----||---
|-----5-------------------|--------------||o--
|-------------------------|--------------||---


  Gtr II
             ~~~~~~                ~~~~~~
|---------------------|---------------------|
|---------------------|---------------------|
|------------3--------|------------5-(5)----|
|------------3-(3)----|------------5-(5)----|
|---------------------|------------3-(3)----|
|-1--1-1-1-1----------|-1--1-1-1-1----------|


|---------------------|---------------------|
|---------------------|---------------------|
|------------1-(1)----|------------8-(8)----|
|------------3-(3)----|------------8-(8)----|
|------------4-(4)----|------------6-(6)----|
|-4--4-4-4-4----------|-4--4-4-4-4----------|

             ~~~~~~                ~~~~~~
|---------------------|---------------------|
|---------------------|---------------------|
|---------------------|------------5-(5)----|
|------------3-(3)----|------------5-(5)----|
|---------------------|------------3-(3)----|
|-1--1-1-1-1----------|-1--1-1-1-1----------|


|---------------------|---------------------|
|---------------------|---------------------|
|------------1-(1)----|------------8-(8)----|
|------------3-(3)----|------------8-(8)----|
|------------4-(4)----|------------6-(6)----|
|-4--4-4-4-4----------|-4--4-4-4-4----------|


                     ~~~~~~~~~~~~
 SOLO
|-------------------------|---------------------|
|-------------------------|---------------------|
|-----------8-10b12r10b12-|-(10)----(10)-7-9b10r|
|-----8-/10---------------|---------------------|
|-/10---------------------|---------------------|
|-------------------------|---------------------|


  ~~
|---------------|---------------------|
|---------------|---------------------|
|-9-------9-5-2-|-5b7r=5p3p2----------|
|---------------|------------5p3------|
|---------------|----------------5p3--|
|---------------|---------------------|


                      ~~~~~~~~~~~           ~~~
|------------------|--------------------------|
|------------------|-13b15--(13)--------------|
|------------------|--------------------10----|
|----------2-5-5b7-|--------------12-12----12-|
|-5----(5)---------|--------------------------|
|------------------|--------------------------|


 ~~~~~~                          ~~~
|---------10------|---------------------|
|----------8------|---------------------|
|------------9b11r|=9-7-5-/5-2-0--------|
|-(12)------------|--------------3b4----|
|-----------------|---------------------|
|-----------------|---------------------|


|--------------------------------------10-12-13-15-|
|-----------------------------10-11-13-------------|
|-0--(0)----------------10-12----------------------|
|--------------10-12-14----------------------------|
|--------12-13-------------------------------------|
|--------------------------------------------------|


   ~~~~~~~~~~~~~~               ~~~~~~~~~~~
|-15b17---15b17r=15-13-|-15-13----------------------|
|----------------------|-------15b17--(15)----12b13-|
|----------------------|----------------------------|
|----------------------|----------------------------|
|----------------------|----------------------------|
|----------------------|----------------------------|


                      ~~~
|-10--------------------|
|----13-----------------|
|-------12-9b11r9-------|
|-----------------10-12-|
|-----------------------|
|-----------------------|


 ~~~~~~~~~~~~                                              ~~~~~~~~~~~~~~~~~~
|----------------------------------------------15-17-18-|-18b20-20b22r20--17----|
|-------------------------------------15-17-18----------|-----------------------|
|----------------------------14-15-17-------------------|-----------------------|
|-(12)--(12)-----------15-17----------------------------|-----------------------|
|-------------15-17-19----------------------------------|-----------------------|
|-------------------------------------------------------|-----------------------|


            ~~~~~~~~~~~~~
|------------------------12b13r=12--|-10----------(12)b13r12-----------|
|-20b22-18-20-(20)--(20)------------|------------------------13--------|
|-----------------------------------|----(9)b10r9---------------9b10r9-|
|-----------------------------------|----------------------------------|
|-----------------------------------|----------------------------------|
|-----------------------------------|----------------------------------|


  ~                         ~~~~~~~
|---------------------|-------------------|
|---------------------|---5-6--(6)--------|
|-7-------------------|-------------------|
|------9b10r9-7-5p0---|-------------7--5--|
|---------------------|-7-----------------|
|---------------------|-------------------|


         ~~~~~~         ~~~             ~~~~
|--------------------|---------------------|
|--------------------|---------------------|
|-----/7-5-(5)-------|---------------------|
|-(5)-----------5-3--|-(3)--5b7r5----------|
|--------------------|------------7b8r7-5--|
|--------------------|---------------------|


 ~~~~~                ~~~~~~~~    ~~~
|------------|----12-13--(13)-----------|
|------------|--------------------------|
|------------|-14-------------14-12-----|
|------------|--------------------------|
|-(5)--------|--------------------------|
|------------|--------------------------|


                   ~~~~         ~~~~                      ~~~
|---------------------------|-------------------------------|
|-------15b17-13-(13)-------|----------------------15b17r13-|
|-(12)----------------12-10-|-(10)--12b14r12-(12)-----------|
|---------------------------|-------------------------------|
|---------------------------|-------------------------------|
|---------------------------|-------------------------------|


 ~~~~~~                      ~~~~~~
|-------------||----------------------|
|-(13)--------||o---------------------|
|-------------||-------------3--3--(3)|
|-------------||-------------3-(3)----|
|-------------||o---------------------|
|-------------||--1--1-1-1-1----------|


             ~~~~~~
|---------------------|---------------------|---------------------|
|---------------------|---------------------|---------------------|
|------------5-(5)----|------------1-(1)----|------------8-(8)----|
|------------5-(5)----|------------3-(3)----|------------8-(8)----|
|------------3-(3)----|------------4-(4)----|------------6-(6)----|
|-1--1-1-1-1----------|-4--4-4-4-4----------|-4--4-4-4-4----------|


             ~~~~~~                ~~~~~~
|---------------------|---------------------|
|---------------------|---------------------|
|------------3--------|------------5-(5)----|
|------------3-(3)----|------------5-(5)----|
|---------------------|------------3-(3)----|
|-1--1-1-1-1----------|-1--1-1-1-1----------|


                                   ~
|---------------------|---------------------|
|---------------------|---------------------|
|------------1-(1)----|------------8-(8)----|
|------------3-(3)----|------------8-(8)----|
|------------4-(4)----|------------6-(6)----|
|-4--4-4-4-4----------|-4--4-4-4-4----------|


|----------------------|-----------------------|----------------------|--------|
|------9-10-(10)-------|-----------------------|----------------------|--------|
|----------------------|------11b13r9-(9)------|----------------------|--------|
|---11------------11-9-|-(9)---------------9-7-|-(7)--9b11r9-(9)--7-9-|-(9)----|
|-9--------------------|-----------------------|----------------------|--------|
|----------------------|-----------------------|----------------------|--------|


          ~~~~~~~
|----------------------|----------------------|
|------9-10-(10)-------|----------------------|
|----------------------|-----11b13r9-(9)------|
|---11------------11-9-|-(9)--------------9-7-|
|-9--------------------|----------------------|
|----------------------|----------------------|


   ~~~         ~~~            ~~
|--------------------------|-------|
|------------------------9-|-------|
|------------------11b13---|-11----|
|-(7)--9-11-9-(9)----------|-------|
|--------------------------|-------|
|--------------------------|-------|


  Gtr II
        ~~~~~~                ~~~~~~                             ~~~~~~~~
|------------------|---------------------|-------------------------|--------|
|-----2-3-(3)------|---------------------|-------------------------|--------|
|------------------|------4b6-2-(2)------|-------------------------|--------|
|---4----------4-2-|-(2)-------------2-0-|-(0)--2b4r2-(2)----------|--------|
|-2----------------|---------------------|-----------------4b5r4-2-|-(2)----|
|------------------|---------------------|-------------------------|--------|


  Gtr III
        ~~~~~~    ~~~~~~~~      ~~~~~~                ~~~~~~     ~~~~~~~~
|-------------------|---------------------|--------------------------|------|
|-----2-3-(3)-------|---------------------|--------------------------|------|
|-------------------|-------4b6-2-(2)-----|-----------------4b6-(4)--|-4----|
|---4-----------4-2-|-(2)-------------2-0-|-(0)---2b4r2-(2)----------|------|
|-2-----------5-----|-----4---------------|-----2--------------------|------|
|-------------------|---------------------|--------------------------|------|


  Gtr II
            ~~~~~~~                       ~~~~~~~    ~~~~~~
|-------14-15-(15)----15-14-|-(14)-12-14------------------|
|----12------------12-------|------------15-(15)-12-15b17-|
|---------------------------|-----------------------------|
|-14------------------------|-----------------------------|
|---------------------------|-----------------------------|
|---------------------------|-----------------------------|


 ~~~~~~~~~~
|----------12-------------------------------|
|-(15)--15----15-------------------12-12-12-|
|----------------14b16r14-12-14-14----------|
|-------------------------------------------|
|-------------------------------------------|
|-------------------------------------------|


   ~~
|-------------------12-14-15b17--|
|----------12-13-15--------------|
|-------14-----------------------|
|-14-----------------------------|
|--------------------------------|
|--------------------------------|


         ~~    ~~~~~~~            ~~         ~~~~~~~~   ~~
|-15-12------------------12-14-|--------------------------|
|----------12-13-(13)-15-------|--------------------------|
|------------------------------|-14--14b16r(14)-(14)-9-11-|
|-------14---------------------|--------------------------|
|------------------------------|--------------------------|
|------------------------------|--------------------------|


                     ~
|------------------|----------|
|------------------|----------|
|------------------|----------|
|-9--(9)-9b11--9-7-|-9--------|
|------------------|----------|
|------------------|----------|


            ~~~~~~~                ~~~~~~~     ~~
|-------------------------|-------------------------|
|-------12-13-(13)--------|-------------------------|
|-------------------------|-14b16r12-(12)-----------|
|----14-------------14-12-|----------------12-10----|
|-12----------------------|-------------------------|
|-------------------------|-------------------------|


    ~~~~       ~~~~~~~        ~~~~~
|----------------------------------|
|----------------------------------|
|----------------------------------|
|-(10)--12b14r12-(12)--14b16r14-12-|
|----------------------------------|
|----------------------------------|


                                               ~~
              |-3--|  |-3--|  |-3--|  |--3--|
|---------------------------------------------------|
|---------------------------------------10-12-13----|
|-------------------------------9-10-12-------------|
|-(12)--(12)------------9-10-12---------------------|
|---------------8-10-12-----------------------------|
|------------12-------------------------------------|


            ~~~~~~~     ~~~~~~~~~        ~~~~~~~    ~~~
|-------------------------|---------------------------|
|-------12-13-(13)--------|---------------------------|
|-------------------------|-------14b16-12-(12)-------|
|----14-------------14-12-|-(12)----------------12-10-|
|-12----------------------|---------------------------|
|-------------------------|---------------------------|


 ~~~~~~        ~~~~~~~           ~~~~~~~~~
|----------------------------------|---------|
|----------------------------------|---------|
|----------------------------------|---------|
|-(10)--12b14r12-(12)--------------|---------|
|----------------------14b15r14-12-|-(12)----|
|----------------------------------|---------|


  Gtr III
        ~~~~~~               ~~~~~~                           ~~~~~~~~
|-----------------|---------------------|-----------------------|--------|
|-----5-6-(6)-----|---------------------|-----------------------|--------|
|-----------------|------7b9-5-(5)------|-----------------------|--------|
|-------------7-5-|-(5)-------------5-3-|-(3)--5b7r5-(5)--------|--------|
|---7-------------|---------------------|-----------------8-7-5-|-(5)----|
|-5---------------|---------------------|-----------------------|--------|


        ~~~~~~                   ~~~~~~    ~~~~~~~~                  ~
|--------------------|-----------------------|---------------------|------|
|-----5-6-(6)--------|-----------------------|---------------------|-3----|
|--------------------|-------7b9-5-(5)-------|-----------------7b9-|------|
|----------------7-5-|-(5)---------------5-3-|-(3)---5b7r5-(5)-----|------|
|---7----------8-----|-----7-----------7-----|-----5---------------|------|
|-5------------------|-----------------------|---------------------|------|

FIM 
less
plus
Add to Songbook Print Version How to play lesson Submit videolesson
Click the best TAGS for this song:
None of them
Contributor: Wydolemo Correct

If you can not find the chords or tabs you want, look at our partner E-chords. If you are a premium member, you have total access to our video lessons.

If you find a wrong Bad To Me from Deep Purple, click the correct button above.

login/signup
my songbooks
my recent views
my submits