Deep Purple

Space Truckin tab

Deep Purple

Album:Machine Head

Year:1972

tools Ultimate Tabs

Start AutoScroll Font Size Down Font Size Up

Find us on Facebook

chords
tabs
bass
ukulele
keyboards
drums
flute
harmonica
guitar pro video
Ultimate-Tabs

Space Truckin

Gtr I, II (E A D G B E) - 'Ritchie Balckmore - Rhythm - Heavy Fuzz'
Gtr III (E A D G B E) - 'Ritchie Balckmore - Lead'

Intro
    Q=120
   4/4
    Gtrs I, II
    E E Q  E E E E   E E Q  H      H    H      E E Q  H     4x
||-----------------|-------------|-----------|--------------||
||o----------------|-------------|-----------|-------------o||
||-----------------|-------------|-----------|--------------||
||-----------7---5-|-------------|-5----7----|--------------||
||o-5-7------5---3-|---7---------|-3----5----|-5-7---------o||
||--3-5------------|---5---------|-----------|-3-5----------||
 |-Rhy Fig 1                                  end Rhy Fig 1-|

   Verse 1 & 2
    Gtr I
     E  E E E E  E E  E   E E  E  E E E E E
||----------------------|-------------------|
||o---------------------|-------------------|
||----------------------|-------------------|
||----------------------|-------------------|
||o--7----9---7----9----|-7----9----7---9---|
||---5----5---5----5----|-5----5----5---5---|
|
|   Gtr II
|    E  E Q   E  E E  E   Q    E  E H
||----------------------|-------------------|
||o-14-14-------14---14-|-----14-14---------|
||--14-14-------14---14-|-----14-14---------|
||--14-14-------14---14-|-----14-14---------|
||o---------------------|-------------------|
||----------------------|-------------------|


  E E E E E E E E    E  E E  E  E E E E
|-----------------|--------------------|
|-----------------|--------------------|
|-----------------|--------------------|
|-5---7---7---9---|--------------------|
|-3---3---5---5---|--7----9-----7---9--|
|-----------------|--5----5-----5---5--|
|
| H       H          E  E E  E  E E Q
|-----------------|--------------------|
|-5-------7-------|-14-14---14-14------|
|-5-------7-------|-14-14---14-14------|
|-5-------7-------|-14-14---14-14------|
|-----------------|--------------------|
|-----------------|--------------------|


   E  E E E  E  E E  E   E E  E  E E E E E
|----------------------|-------------------|
|----------------------|-------------------|
|----------------------|-------------------|
|----------------------|-------------------|
|--7----9----7----9----|-7----9----7---9---|
|--5----5----5----5----|-5----5----5---5---|
|
|  E  E Q    E  E E  E   Q    E  E H
|----------------------|-------------------|
|-15p14-----14-14---14-|-----14-14---------|
|-14-14-----14-14---14-|-----14-14---------|
|-17p14-----14-14---14-|-----14-14---------|
|----------------------|-------------------|
|----------------------|-------------------|


  E E E E E E E E    E  E E  E  E E E E
|-----------------|---------------------|
|-----------------|---------------------|
|-----------------|---------------------|
|-5---7---7---9---|---------------------|
|-3---3---5---5---|--7----9-----7---9---|
|-----------------|--5----5-----5---5---|
|
| H       H          E  E E  E  E E Q
|-----------------|---------------------|
|-5-------7-------|-14-14---14-14-------|
|-5-------7-------|-14-14---14-14-------|
|-5-------7-------|-14-14---14-14-------|
|-----------------|---------------------|
|-----------------|---------------------|


  E E E E E E E E    E  E  E  E E E E E   E E E E E E E E   Q  Q  Q  Q
|-----------------|---------------------|-----------------|-------------|
|-----------------|---------------------|-----------------|-------------|
|-----------------|---------------------|-----------------|-------9-----|
|-7---9---7---9---|---------------------|-7---9---7---9---|----9-----9--|
|-5---5---5---5---|--7-----9----7---9---|-5---5---5---5---|-7-----------|
|-----------------|--5-----5----5---5---|-----------------|-------------|
|
| E E E E H          E  E  E  E H         E E E E H         W
|-----------------|---------------------|-----------------|-------------|
|-7-7-7-7---------|-14-14-14-14---------|-7-7-7-7---------|-9-----------|
|-7-7-7-7---------|-14-14-14-14---------|-7-7-7-7---------|-9-----------|
|-7-7-7-7---------|-14-14-14-14---------|-7-7-7-7---------|-9-----------|


|-----------------|-14-14-14-14---------|-----------------|-------------|
|-----------------|---------------------|-----------------|-------------|


                  Chorus
    Q   Q  H       E E E E +E  E E E   E E E E +E  E E E   E E E E +E  E E E
|---------------||-------------------|-------------------|-------------------|
|---------------||-------------------|-------------------|-------------------|
|----------7----||-------------------|-------------------|-------------------|
|-------9-------||---2-1-0-(0)-------|---2-1-0-(0)-------|---2-1-0-(0)-------|
|---7-----------||-0-----------3-2-1-|-0-----------3-2-1-|-0-----------3-2-1-|
|---------------||-------------------|-------------------|-------------------|
|
|  +W              E E E E +E  E E E   E E E E +E  E E E   E E E E +E  E E E
|---------------||-------------------|-------------------|-------------------|
|---------------||-------------------|-------------------|-------------------|
|---------------||-------------------|-------------------|-------------------|
|-(18)----------||---2-1-0-(0)-------|---2-1-0-(0)-------|---2-1-0-(0)-------|
|-(19)----------||-0-----------3-2-1-|-0-----------3-2-1-|-0-----------3-2-1-|
|-(19)----------||-------------------|-------------------|-------------------|
                 |-Riff 1

  Gtrs I, II
  E E E E +E  E E E   E E E E +E  E E E
|-------------------|-------------------|
|-------------------|-------------------|
|-------------------|-------------------|
|---2-1-0-(0)-------|-------------------|
|-0-----------3-2-0-|---2-1-0-(0)-------|
|-------------------|-0-----------3-2-1-|


  E E E E +E  E E E   E E E E +E  E E E   Q  Q  Q  Q
|-------------------|-------------------|--------------||
|-------------------|-------------------|-------------o||
|-------------------|-------------------|--------------||
|-------------------|-------------------|--------------||
|---2-1-0-(0)-------|---2-1-0-(0)-------|-------------o||
|-0-----------3-2-1-|-0-----------3-2-1-|-0--1--2--3---||
                                            end Riff 1-|

   Verse
w/Rhy Fig 1
    Gtr I
    S S S S S S S S S S S S S S S S   S S S S S S S S S S S S Q
||--x-x-x-x-x-x-x-x-x-x-x-x-x-x-x-x-|-x-x-x-x-x-x-x-x-x-x-x-x----|
||o-x-x-x-x-x-x-x-x-x-x-x-x-x-x-x-x-|-x-x-x-x-x-x-x-x-x-x-x-x-5--|
||--x-x-x-x-x-x-x-x-x-x-x-x-x-x-x-x-|-x-x-x-x-x-x-x-x-x-x-x-x-5--|
||--x-x-x-x-x-x-x-x-x-x-x-x-x-x-x-x-|-x-x-x-x-x-x-x-x-x-x-x-x-5--|
||o-x-x-x-x-x-x-x-x-x-x-x-x-x-x-x-x-|-x-x-x-x-x-x-x-x-x-x-x-x----|
||--x-x-x-x-x-x-x-x-x-x-x-x-x-x-x-x-|-x-x-x-x-x-x-x-x-x-x-x-x----|



  S S S S S S S S S S S S S S S S   S S S S S S S S S S S S Q    3x
|-x-x-x-x-x-x-x-x-x-x-x-x-x-x-x-x-|-x-x-x-x-x-x-x-x-x-x-x-x------||
|-x-x-x-x-x-x-x-x-x-x-x-x-x-x-x-x-|-x-x-x-x-x-x-x-x-x-x-x-x-5---o||
|-x-x-x-x-x-x-x-x-x-x-x-x-x-x-x-x-|-x-x-x-x-x-x-x-x-x-x-x-x-5----||
|-x-x-x-x-x-x-x-x-x-x-x-x-x-x-x-x-|-x-x-x-x-x-x-x-x-x-x-x-x-5----||
|-x-x-x-x-x-x-x-x-x-x-x-x-x-x-x-x-|-x-x-x-x-x-x-x-x-x-x-x-x-----o||
|-x-x-x-x-x-x-x-x-x-x-x-x-x-x-x-x-|-x-x-x-x-x-x-x-x-x-x-x-x------||


w/Rhy Fig 1 1st 2 bars
  S S S S S S S S S S S S S S S S   S S S S S S S S S S S S Q
|-x-x-x-x-x-x-x-x-x-x-x-x-x-x-x-x-|-x-x-x-x-x-x-x-x-x-x-x-x-----||
|-x-x-x-x-x-x-x-x-x-x-x-x-x-x-x-x-|-x-x-x-x-x-x-x-x-x-x-x-x-5---||
|-x-x-x-x-x-x-x-x-x-x-x-x-x-x-x-x-|-x-x-x-x-x-x-x-x-x-x-x-x-5---||
|-x-x-x-x-x-x-x-x-x-x-x-x-x-x-x-x-|-x-x-x-x-x-x-x-x-x-x-x-x-5---||
|-x-x-x-x-x-x-x-x-x-x-x-x-x-x-x-x-|-x-x-x-x-x-x-x-x-x-x-x-x-----||
|-x-x-x-x-x-x-x-x-x-x-x-x-x-x-x-x-|-x-x-x-x-x-x-x-x-x-x-x-x-----||


  Gtrs I, II
  H    H      E E E E E E E E   E E E E E E E E   E E E E E E E E
|-----------|-----------------|-----------------|-----------------|
|-----------|-----------------|-----------------|-----------------|
|-5----7----|-9-9-9-9-9-9-9-9-|-9-9-9-9-9-9-9-9-|-9-9-9-9-9-9-9-9-|
|-5----7----|-9-9-9-9-9-9-9-9-|-9-9-9-9-9-9-9-9-|-9-9-9-9-9-9-9-9-|
|-3----5----|-7-7-7-7-7-7-7-7-|-7-7-7-7-7-7-7-7-|-7-7-7-7-7-7-7-7-|
|-----------|-----------------|-----------------|-----------------|


  Q   Q   Q   Q
|-----------------|
|-----------------|
|-----------------|
|-----------------|
|-----------------|
|-0---1---2---3---|
|
| E E E E E E E E
|-----------------|
|-----------------|
|-9-9-9-9-9-9-9-9-|
|-9-9-9-9-9-9-9-9-|
|-7-7-7-7-7-7-7-7-|
|-----------------|


Gtr I, II - Riff 1



Guitar Solo
 Gtr III
   a E a   +E  E E E E a   +E  E
||--------------------------------|
||--------------------------------|
||-----5b7-(7)---------5b6-(6)----|
||-5s7---------7---5-7------------|
||--------------------------------|
||--------------------------------|


  E E     +Q   a     +E  S S S S S S
|------------------------5-----------|
|---8b10-(10)--8b10-(10)---8-5-------|
|------------------------------8-7-6-|
|------------------------------------|
|------------------------------------|
|------------------------------------|


  S S S S E E +E  a   +E  Q     E E S S E S S E S S E
|-----------------------------|---5-----5-----5-----5--|
|-----------------------------|---5-3s5---3s5---3s5----|
|---7-5-----------5b6-(6)-----|------------------------|
|-7-----7-5-7-(7)---------7\--|------------------------|
|-----------------------------|------------------------|
|-----------------------------|-5----------------------|


                                  ~~~~~~~~
  S S S S S S S S S S S S a   +E  E   +Q   a   +E  E  Q  E E
|-----5---3-------------------------|------------------------|
|-3s5---------7---5---3-------------|----------------------8-|
|-------x---x---x---------5b6-(5)---|------5b6-(6)-----------|
|-------------------x---x---------7-|-(7)----------7\--------|
|-----------------------------------|------------------------|
|-----------------------------------|------------------------|


                                    ~
      |--3--| |--3--| |-3-| |--3--|
  +E  S +S  S S +S  S S S S S +S  S Q  E
|-----5-(5)---------------------------------|
|-(8)-------8-5-(5)-------------------------|
|-------------------8-----------------------|
|---------------------7p5h7-5-(5)---5-------|
|---------------------------------7----7\---|
|-------------------------------------------|


 Drum - Interlude
  Wx16
|---------||
|---------||
|---------||
|---------||
|---------||
|---------||


  Gtr I
  W                 W          W          H    H      H    H
|-----------------|----------|----------|-----------|-----------|
|-----------------|----------|----------|-----------|-----------|
|-----------------|----------|-4--------|-4---------|-----------|
|-----------------|----------|-2--------|-3---------|------5----|
|-----------------|----------|----------|------2----|-3----4----|
|-----------------|-0--------|----------|-----------|-----------|
|
| Gtr II
| Q  E E  Q   Q     W          W          H    H      H    H
|-----------------|----------|----------|-----------|-----------|
|-----------------|----------|----------|-----------|-----------|
|-----------------|-4--------|-5--------|-6----7----|-8----9----|
|-----------------|-2--------|-3--------|-4----5----|-6----7----|
|-----------------|----------|----------|-----------|-----------|
|------x\-x\--x\--|----------|----------|-----------|-----------|


  Q  Q  Q  Q    Q  Q  Q   Q     Q   Q   Q   Q     Q   Q   Q   Q
|-------------|--------------|-----------------|------------------|
|-------------|--------------|-----------------|------------------|
|-------------|--------------|-----------------|------------------|
|-2--3--4--5--|-6--7--8---9--|-10--11--12--13--|-14--15--16--17\--|
|-1--2--3--4--|-5--6--7---8--|--9--10--11--12--|-13--14--15--16\--|
|-------------|--------------|-----------------|------------------|
|
| Q  Q  Q  Q    Q  Q  Q   Q     Q   Q   Q   Q     Q   Q   Q   Q
|-------------|--------------|-----------------|------------------|
|-------------|--------------|-----------------|------------------|
|-3--4--5--6--|-7--8--9--10--|-11--12--13--14--|-15--16--17--18\--|
|-------------|--------------|-----------------|------------------|
|-------------|--------------|-----------------|------------------|
|-------------|--------------|-----------------|------------------| 
less
plus
Add to Songbook Print Version How to play lesson Submit videolesson
Click the best TAGS for this song:
None of them
Contributor: robeLiqu Correct

If you can not find the chords or tabs you want, look at our partner E-chords. If you are a premium member, you have total access to our video lessons.

If you find a wrong Bad To Me from Deep Purple, click the correct button above.

login/signup
my songbooks
my recent views
my submits