tools Ultimate Tabs

Start AutoScroll Font Size Down Font Size Up

Find us on Facebook

chords
tabs
bass
ukulele keyboards
drums
flute
harmonica
guitar pro video
Ultimate-Tabs

The Gypsy

The Gypsy
(Blackmore/Coverdale/Hughes/Lord/Paice)
From "Stormbringer", 1974
Riff 1

E|-----------------------------------------------------------------------|
B|-----------------------------------------------------------------------|
G|--9-7------------------------------------------------------------------|
D|------9p7\5-7---5p4---------------5p4----------------------------------|
A|--------------7-----7-7--5h7-7--7-----7-7--5h7-7-----------------------|
E|-----------------------------------------------------------------------|

Riff 1a
Played at the end of intro.

E|---------------------------------------------------------------------|
B|---------------------------------------------------------------------|
G|--9-7----------------------------------------------------------------|
D|------9p7\5-7---5p4-----5p4-----5p4----------------------------------|
A|--------------7-----7-7-----7-7-----7--------------------------------|
E|---------------------------------------------------------------------|

Riff 2
This is Riff 1 higher for one octave.

E|--12-10--------------------------------------------------------------|
B|--------12p10\8-10---8p7--------------8p7----------------------------|
G|-------------------9-----9-9-7h9-9--9-----9-9-7h9-9------------------|
D|---------------------------------------------------------------------|
A|---------------------------------------------------------------------|
E|---------------------------------------------------------------------|

Riff 2a
This is Riff 1a higher for one octave.

E|--12-10--------------------------------------------------------------|
B|--------12p10\8-10---8p7-----8p7-----8p7-----------------------------|
G|-------------------9-----9-9-----9-9-----9---------------------------|
D|---------------------------------------------------------------------|
A|---------------------------------------------------------------------|
E|---------------------------------------------------------------------|

Solo

E|---------------------------------------------------------------------|
B|--10-/12~~~-12/13-12-10-/8~~--7-8-8/10-8-7~~--5-7-7/8-7-3/5~~--------|
G|---------------------------------------------------------------------|
D|---------------------------------------------------------------------|
A|---------------------------------------------------------------------|
E|---------------------------------------------------------------------|

E|----/10~~--8-10-10/12-10-7~~--/5-7-7/8-7\5---------------------------|
B|--7-----------------------------------------8~~-10~~-----------------|
G|---------------------------------------------------------------------|
D|---------------------------------------------------------------------|
A|---------------------------------------------------------------------|
E|---------------------------------------------------------------------|

Fill 1
Played twice after solo, together with Riff 2.

E|--/12-14-15-17-12~~\-------------------------------------------------|
B|---------------------------------------------------------------------|
G|---------------------------------------------------------------------|
D|---------------------------------------------------------------------|
A|---------------------------------------------------------------------|
E|---------------------------------------------------------------------|

Chords (by Gilles Snowcat)

Am7 Bm7
Tell me gypsy can you see me

Em
In your crystal ball

C D
I'm asking you what can I do

Bm7
My back's against the wall

Em Em/D Am7
And I can't hold on much longer

C D B7
So I've come to you my friend

C D Em D/F# G Am Em
For now my life seems at an end

Am7 Bm7 Cmaj7 D Em
less
plus
Add to Songbook Print Version How to play lesson Submit videolesson
Click the best TAGS for this song:
None of them
Contributor: joebbarn Correct

If you can not find the chords or tabs you want, look at our partner E-chords. If you are a premium member, you have total access to our video lessons.

If you find a wrong Bad To Me from Deep Purple, click the correct button above.

login/signup
my songbooks
my recent views
my submits