Deep Purple

Time To Kill bass

Deep Purple

Album:The Battle Rages On...

Year:1993

tools Ultimate Tabs

Start AutoScroll Font Size Down Font Size Up

Find us on Facebook

chords
tabs
bass
ukulele
keyboards
drums
flute
harmonica
guitar pro
video
Ultimate-Tabs

Time To Kill

Intro:
G|-----------------|
D|-----------------|
A|-----------------|
E|-----------2-0-2-|

G|-----------------|-----------------|-----------------|-----------------|
D|-----------------|-----------------|-----------------|-----------------|
A|-----------------|-------------4-7-|-9-9-9-7-----5-4-|-----------------|
E|-5-5-5-5-5-5-5-5-|-5-5-5-5-5-5-----|-----------------|-5-5-5-5-5-5-0-2-|

G|-----------------|-----------------|-----------------|-----------------|
D|-----------------|-----------------|-----------------|-----------------|
A|-----------------|-----------------|-----------------|-----------------|
E|-5-5-5-5-5-5-5-5-|-5-5-5-5-5-5-5-5-|-2-2-2-4-4-4-4-4-|-5-5-5-5-5-5-5-5-|

Verse:

G|-----------------| x7
D|-----------------|
A|-----------------|
E|-2-2-2-2-2-2-2-2-|

G|-----------------| 
D|-----------------|
A|-----------------|
E|---5-5-7-7-9-9---|

G|-----------------| x7
D|-----------------|
A|-----------------|
E|-2-2-2-2-2-2-2-2-|

G|-----------------| 
D|-----------------|
A|-----------------|
E|---5-5-7-7-9-9---|

Bridge:

G|-----------------|-----------------|-----------------|-----------------|
D|-----------------|-----------------|-----------------|-----------------|
A|-9-9-9-9-9-9-9-9-|-9-9-9-9-9-9-9-9-|-----------------|-----------------|
E|-----------------|-----------------|-2-2-2-2-2-2-2-2-|-2-2-2-2-2-5-7-9-|

G|-----------------|-----------------|-----------------|-----------------|
D|-----------------|-----------------|-----------------|-----------------|
A|-9-9-9-9-9-9-9-9-|-9-9-9-9-9-9-9-7-|-5-5-5-5-5-5-5-5-|-----5--4--2-----|
E|-----------------|-----------------|-----------------|-----------------|

Chorus:

G|-----------------|-----------------|-----------------|-----------------|
D|-----------------|-----------------|-----------------|-----------------|
A|-----------------|-----------------|-9-9-9-7-----5-4-|-------------4-7-|
E|-5-5-5-5-5-5-5-5-|-5-5-5-5-5-5-5-5-|-----------------|-5-5-5-5-5-5-----|

G|-----------------|-----------------|-----------------|-----------------|
D|-----------------|-----------------|-----------------|-----------------|
A|-----------------|-----------------|-9-9-9-7-----5-4-|-------------4-7-|
E|-5-5-5-5-5-5-5-5-|-5-5-5-5-5-5-5-5-|-----------------|-5-5-5-5-5-5-----|
G|-----------------|-----------------|-----------------|-----------------|
D|-----------------|-----------------|-----------------|-----------------|
A|-----------------|-----------------|-9-9-9-7-----5-4-|-------------4-7-|
E|-5-5-5-5-5-5-5-5-|-5-5-5-5-5-5-5-5-|-----------------|-5-5-5-5-5-5-----|

G|-----------------|-----------------|-----------------|-----------------|
D|-----------------|-----------------|-----------------|-----------------|
A|-----------------|-----------------|-----------------|-----------------|
E|-5-5-5-5-5-5-5-5-|-5-5-5-5-5-5-5-5-|-2-2-2-4-4-4-4-4-|-5-5-5-5-5-5-5-5-|

Solo:

G|-----------------|-----------------|-----------------|-----------------|
D|-----------------|-----------------|-----------------|-----------------|
A|-----------------|-----------------|-----------------|-----4-------6---|
E|-9-9-4-7-9-9-7-9-|-9-9-7-4-9-9-7-9-|-9-9-7-4-9-0-2-4-|-5-5---5-7-7---7-|

G|-----------------|-----------------|-----------------|-----------------|
D|-----------------|-----------------|-----------------|-----------------|
A|-----------------|-----------------|---4-----------4-|-5--------9------|
E|-9-9-9-9-9-9-7-9-|-9-9-9-4-7-9-7-4-|-5---5-7---7-7---|-----------------|

G|-----------------|
D|-----------------|
A|-----------------|
E|-7---------------|








less
plus
Add to Songbook Print Version How to play lesson Submit videolesson
Click the best TAGS for this song:
None of them
Contributor: musikevi Correct

If you can not find the chords or tabs you want, look at our partner E-chords. If you are a premium member, you have total access to our video lessons.

If you find a wrong Bad To Me from Deep Purple, click the correct button above.

login/signup
my songbooks
my recent views
my submits