S Deftones

Around the fur bass

Deftones

Album:Around The Fur

Year:1998

tools Ultimate Tabs

Start AutoScroll Font Size Down Font Size Up

Find us on Facebook

chords
tabs
bass
ukulele
keyboards
drums
flute
harmonica
guitar pro
video
Ultimate-Tabs

Around the fur

Verse: 

|----------------------------------- 
|----------------------------------- 
|----------------------------------- 
|-0-0-0-0--X-12-12-12--8-8-8--5-5-5- 


Chorus: 

Play this X3 
|-------------------------------------------------------------------- 
|-------------------------------------------------------------------- 
|-------------------------------------------------------------------- 
|-0--0---3-3-3-3-3-3-3-3--4-4-4-4-4-4-4-4/11-11-11-11-11-11-11-11-11- 

Then this once 
|-------------------------------------------- 
|-------------------------------------------- 
|-------------------------------------------- 
|-0---3-3-3-3-3-3-3-3--2-2-2-2-2-2-2-2--0~~~- 


Bridge: 

|-------------- 
|-------------- 
|-------4-5---- 
|-0-0-------6~- 


Ending: 

|----------------------------------- 
|----------------------------------- 
|----------------------------------- 
|-0-0-0-0-0-0-0-0-10-10-10-10\6-6-6-
 
less
plus
Add to Songbook Print Version How to play lesson Submit videolesson
Click the best TAGS for this song:
None of them
Contributor: 5687alon Correct

If you can not find the chords or tabs you want, look at our partner E-chords. If you are a premium member, you have total access to our video lessons.

If you find a wrong Bad To Me from Deftones, click the correct button above.

login/signup
my songbooks
my recent views
my submits