Deftones

Digital bath bass

Deftones

Album:White Pony

Year:2000

tools Ultimate Tabs

Start AutoScroll Font Size Down Font Size Up

Find us on Facebook

chords
tabs
bass
ukulele
keyboards
drums
flute
harmonica
guitar pro
video
Ultimate-Tabs

Digital bath

 
Album: White Pony
Band: 
Tabbed by: Daniel Pérez M. 
e- mail: ([email protected]) or ([email protected])
Tuning: Drop C  (C,G,C,F)

I´m From Bolivia. Please rate this tab.
I  know Chi  plays  CGCF  all the "White Pony" so this tab is 90%right and complete. 
Verse 1:
"You Move..."
F|------------------------------------------------------------------|
C|------------------------------------------------------------------|
G|------------------------------------------------------------------|
C|---4--0-0-4----4--0-0-4----4--0-0-4----4--0-0-4-------------------|

"We are downstairs..." 
F|------------------------------------------------------------------|
C|------------------------------------------------------------------|
G|----9-9-12-12-15-14------9~--12-12-15-14--------------------------|
C|-0----------------------------------------------------------------|

"Where no can see..."
F|------------------------------------------------------------------|
C|----------------------------4h5p4--2---------4\5/4--2-------------|
G|-------------------------------------2----------------2-----------|
C|---4--0-0-4--0-4--00-4-(4)-------------2--------------------------|

Chorus 1:
"I feel like..."
F|-------------------------------|
C|-------------------------------|
G|-------------------------------|
C|-(4)--4--0-0-4--0-4--00-4-(0)--|

Verse part 2:
"You make the water warm..."
F|------------------------------------------------------------------|
C|------------------------------------------------------------------|
G|------------------------------------------------------------------|
C|---4--0-0-4----4--0-0-4----4--0-0-4----4--0-0-4-------------------| 

"You taste..."
F|------------------------------------------------------------------|
C|------------------------------------------------------------------|
G|----9--9-12-12-15-14------9-9--12-12-15-14------------------------|
C|-0----------------------------------------------------------------|

"And I know..."
F|------------------------------------------------------------------|
C|----------------------------4\5/4--2---------4\5/4--2-------------|
G|-------------------------------------2----------------2-----------|
C|---4--0-0-4--0-4--00-4-(0)-------------2--------------------------|

Chorus 2:
"I Feel like..."
F|------------------------------------------------------------------|
C|------------------------------------------------------------------|
G|------------------------7-7-9\10/9--7-5----7-7-9\10/9--7-5--------|
C|-(4)-0-00-4--0-4-00-4---------------------------------------------|
					
F|----------------------------|
C|----------------------------|
G|----------------------------|
C|---4--0-0-4--0-4--00-4-(0)--|

Interlude:
"You breated then you stopped..."
F|----------r-------------|
C|----------e-------------|
G|----------s-------------|
C|----------t-------------|

Chorus 3:
"And tonight..."
F|------------------------------------------------------------------|
C|------------------------------------------------------------------|
G|--7-7-9\10/9--7-5----7-7-9\10/9--7-5------------------------------|
C|----------------------------------------4--00-4--0-4-00-4---------|

"Tonight I feel.."
F|------------------------------------------------------------------|
C|------------------------------------------------------------------|
G|-------9-9-9-12-12-15-14-----9-9-12-12-15-14----------------------|
C|--(0)-------------------------------------------------------------|

"I Feel like..."
F|------------------------------------------------------------------|
C|------------------------------------------------------------------|
G|-------------------------7-7-9\10/9--7-5----7-7-9\10/9--7-5-------|
C|---4--00-4--0-4-00-4---0------------------------------------------|

Last part
F|------------------------------------------------------------------|
C|------------------------------------------------------------------|
G|------------------------------------------------------------------|
C|---4--00-4--0-4-00-4---0~-----------------------------------------|


I have a 5 string bass  but I arranged it to cgcf. 
This song (like all other Deftones songs) is in Drop C tuning. I have seen
some pretty messed up tabs for this great song.
Im pretty sure this tab is right , but any corrections, comments or whatever email me:
[email protected] Or [email protected]


Daniel 



							Viva Bolivia
 
less
plus
Add to Songbook Print Version How to play lesson Submit videolesson
Click the best TAGS for this song:
None of them
Contributor: maziGoyu Correct

If you can not find the chords or tabs you want, look at our partner E-chords. If you are a premium member, you have total access to our video lessons.

If you find a wrong Bad To Me from Deftones, click the correct button above.

login/signup
my songbooks
my recent views
my submits